ISO-10303-21;
HEADER;
/* Generated by software containing ST-Developer
 * from STEP Tools, Inc. (www.steptools.com) 
 */

FILE_DESCRIPTION(
/* description */ ('PLASSON THR. REDUCING NIPPLE 1"-3/4" PVC'),
/* implementation_level */ '2;1');

FILE_NAME(
/* name */ 
'C:\\Dropbox\\KIMPROJECTS-Inventor\\99-16-3568-Processing\\PVC Catalog
 2017\\051601\\051601010007.ipt.stp',
/* time_stamp */ '2017-12-07T16:00:54+02:00',
/* author */ ('KIM'),
/* organization */ (''),
/* preprocessor_version */ 'ST-DEVELOPER v15.6',
/* originating_system */ 'Autodesk Inventor 2015',
/* authorisation */ '');

FILE_SCHEMA (('AUTOMOTIVE_DESIGN { 1 0 10303 214 3 1 1 }'));
ENDSEC;

DATA;
#10=MECHANICAL_DESIGN_GEOMETRIC_PRESENTATION_REPRESENTATION('',(#13),#471);
#11=SHAPE_REPRESENTATION_RELATIONSHIP('SRR','None',#480,#12);
#12=ADVANCED_BREP_SHAPE_REPRESENTATION($,(#14),#470);
#13=STYLED_ITEM('',(#489),#14);
#14=MANIFOLD_SOLID_BREP('Solid1',#279);
#15=CYLINDRICAL_SURFACE('',#292,10.5764);
#16=CYLINDRICAL_SURFACE('',#296,13.2205);
#17=CYLINDRICAL_SURFACE('',#303,13.2996);
#18=CYLINDRICAL_SURFACE('',#307,16.6245);
#19=FACE_BOUND('',#74,.T.);
#20=FACE_BOUND('',#76,.T.);
#21=FACE_BOUND('',#78,.T.);
#22=FACE_BOUND('',#80,.T.);
#23=FACE_BOUND('',#82,.T.);
#24=FACE_BOUND('',#84,.T.);
#25=FACE_BOUND('',#86,.T.);
#26=FACE_BOUND('',#88,.T.);
#27=FACE_BOUND('',#90,.T.);
#28=FACE_BOUND('',#92,.T.);
#29=FACE_BOUND('',#94,.T.);
#30=FACE_BOUND('',#96,.T.);
#31=FACE_BOUND('',#98,.T.);
#32=CIRCLE('',#288,10.5764);
#33=CIRCLE('',#289,10.84081);
#34=CIRCLE('',#291,12.95609);
#35=CIRCLE('',#293,10.5764);
#36=CIRCLE('',#295,13.2205);
#37=CIRCLE('',#297,13.2205);
#38=CIRCLE('',#299,13.56401);
#39=CIRCLE('',#300,13.2996);
#40=CIRCLE('',#302,16.36009);
#41=CIRCLE('',#304,13.2996);
#42=CIRCLE('',#306,16.6245);
#43=CIRCLE('',#308,16.6245);
#44=TOROIDAL_SURFACE('',#287,10.84081,0.26441);
#45=TOROIDAL_SURFACE('',#294,12.95609,0.26441);
#46=TOROIDAL_SURFACE('',#298,13.56401,0.26441);
#47=TOROIDAL_SURFACE('',#305,16.36009,0.26441);
#48=FACE_OUTER_BOUND('',#67,.T.);
#49=FACE_OUTER_BOUND('',#68,.T.);
#50=FACE_OUTER_BOUND('',#69,.T.);
#51=FACE_OUTER_BOUND('',#70,.T.);
#52=FACE_OUTER_BOUND('',#71,.T.);
#53=FACE_OUTER_BOUND('',#72,.T.);
#54=FACE_OUTER_BOUND('',#73,.T.);
#55=FACE_OUTER_BOUND('',#75,.T.);
#56=FACE_OUTER_BOUND('',#77,.T.);
#57=FACE_OUTER_BOUND('',#79,.T.);
#58=FACE_OUTER_BOUND('',#81,.T.);
#59=FACE_OUTER_BOUND('',#83,.T.);
#60=FACE_OUTER_BOUND('',#85,.T.);
#61=FACE_OUTER_BOUND('',#87,.T.);
#62=FACE_OUTER_BOUND('',#89,.T.);
#63=FACE_OUTER_BOUND('',#91,.T.);
#64=FACE_OUTER_BOUND('',#93,.T.);
#65=FACE_OUTER_BOUND('',#95,.T.);
#66=FACE_OUTER_BOUND('',#97,.T.);
#67=EDGE_LOOP('',(#189,#190,#191,#192));
#68=EDGE_LOOP('',(#193,#194,#195,#196));
#69=EDGE_LOOP('',(#197,#198,#199,#200));
#70=EDGE_LOOP('',(#201,#202,#203,#204));
#71=EDGE_LOOP('',(#205,#206,#207,#208));
#72=EDGE_LOOP('',(#209,#210,#211,#212));
#73=EDGE_LOOP('',(#213));
#74=EDGE_LOOP('',(#214));
#75=EDGE_LOOP('',(#215));
#76=EDGE_LOOP('',(#216));
#77=EDGE_LOOP('',(#217));
#78=EDGE_LOOP('',(#218));
#79=EDGE_LOOP('',(#219));
#80=EDGE_LOOP('',(#220));
#81=EDGE_LOOP('',(#221));
#82=EDGE_LOOP('',(#222));
#83=EDGE_LOOP('',(#223));
#84=EDGE_LOOP('',(#224));
#85=EDGE_LOOP('',(#225));
#86=EDGE_LOOP('',(#226));
#87=EDGE_LOOP('',(#227));
#88=EDGE_LOOP('',(#228));
#89=EDGE_LOOP('',(#229));
#90=EDGE_LOOP('',(#230));
#91=EDGE_LOOP('',(#231));
#92=EDGE_LOOP('',(#232));
#93=EDGE_LOOP('',(#233));
#94=EDGE_LOOP('',(#234));
#95=EDGE_LOOP('',(#235,#236,#237,#238,#239,#240));
#96=EDGE_LOOP('',(#241));
#97=EDGE_LOOP('',(#242,#243,#244,#245,#246,#247));
#98=EDGE_LOOP('',(#248));
#99=LINE('',#398,#117);
#100=LINE('',#400,#118);
#101=LINE('',#402,#119);
#102=LINE('',#403,#120);
#103=LINE('',#406,#121);
#104=LINE('',#408,#122);
#105=LINE('',#409,#123);
#106=LINE('',#412,#124);
#107=LINE('',#414,#125);
#108=LINE('',#415,#126);
#109=LINE('',#419,#127);
#110=LINE('',#421,#128);
#111=LINE('',#423,#129);
#112=LINE('',#424,#130);
#113=LINE('',#426,#131);
#114=LINE('',#427,#132);
#115=LINE('',#429,#133);
#116=LINE('',#430,#134);
#117=VECTOR('',#316,20.7846096908266);
#118=VECTOR('',#317,10.);
#119=VECTOR('',#318,20.7846096908266);
#120=VECTOR('',#319,10.);
#121=VECTOR('',#322,20.7846096908265);
#122=VECTOR('',#323,10.);
#123=VECTOR('',#324,20.7846096908265);
#124=VECTOR('',#327,20.7846096908265);
#125=VECTOR('',#328,10.);
#126=VECTOR('',#329,20.7846096908265);
#127=VECTOR('',#332,20.7846096908266);
#128=VECTOR('',#333,10.);
#129=VECTOR('',#334,20.7846096908266);
#130=VECTOR('',#335,10.);
#131=VECTOR('',#338,20.7846096908265);
#132=VECTOR('',#339,20.7846096908265);
#133=VECTOR('',#342,20.7846096908265);
#134=VECTOR('',#343,20.7846096908265);
#135=VERTEX_POINT('',#396);
#136=VERTEX_POINT('',#397);
#137=VERTEX_POINT('',#399);
#138=VERTEX_POINT('',#401);
#139=VERTEX_POINT('',#405);
#140=VERTEX_POINT('',#407);
#141=VERTEX_POINT('',#411);
#142=VERTEX_POINT('',#413);
#143=VERTEX_POINT('',#417);
#144=VERTEX_POINT('',#418);
#145=VERTEX_POINT('',#420);
#146=VERTEX_POINT('',#422);
#147=VERTEX_POINT('',#432);
#148=VERTEX_POINT('',#434);
#149=VERTEX_POINT('',#437);
#150=VERTEX_POINT('',#440);
#151=VERTEX_POINT('',#443);
#152=VERTEX_POINT('',#446);
#153=VERTEX_POINT('',#449);
#154=VERTEX_POINT('',#451);
#155=VERTEX_POINT('',#454);
#156=VERTEX_POINT('',#457);
#157=VERTEX_POINT('',#460);
#158=VERTEX_POINT('',#463);
#159=EDGE_CURVE('',#135,#136,#99,.T.);
#160=EDGE_CURVE('',#137,#136,#100,.T.);
#161=EDGE_CURVE('',#137,#138,#101,.T.);
#162=EDGE_CURVE('',#138,#135,#102,.T.);
#163=EDGE_CURVE('',#136,#139,#103,.T.);
#164=EDGE_CURVE('',#140,#139,#104,.T.);
#165=EDGE_CURVE('',#140,#137,#105,.T.);
#166=EDGE_CURVE('',#139,#141,#106,.T.);
#167=EDGE_CURVE('',#142,#141,#107,.T.);
#168=EDGE_CURVE('',#142,#140,#108,.T.);
#169=EDGE_CURVE('',#143,#144,#109,.T.);
#170=EDGE_CURVE('',#145,#144,#110,.T.);
#171=EDGE_CURVE('',#145,#146,#111,.T.);
#172=EDGE_CURVE('',#146,#143,#112,.T.);
#173=EDGE_CURVE('',#144,#135,#113,.T.);
#174=EDGE_CURVE('',#138,#145,#114,.T.);
#175=EDGE_CURVE('',#141,#143,#115,.T.);
#176=EDGE_CURVE('',#146,#142,#116,.T.);
#177=EDGE_CURVE('',#147,#147,#32,.T.);
#178=EDGE_CURVE('',#148,#148,#33,.T.);
#179=EDGE_CURVE('',#149,#149,#34,.T.);
#180=EDGE_CURVE('',#150,#150,#35,.T.);
#181=EDGE_CURVE('',#151,#151,#36,.T.);
#182=EDGE_CURVE('',#152,#152,#37,.T.);
#183=EDGE_CURVE('',#153,#153,#38,.T.);
#184=EDGE_CURVE('',#154,#154,#39,.T.);
#185=EDGE_CURVE('',#155,#155,#40,.T.);
#186=EDGE_CURVE('',#156,#156,#41,.T.);
#187=EDGE_CURVE('',#157,#157,#42,.T.);
#188=EDGE_CURVE('',#158,#158,#43,.T.);
#189=ORIENTED_EDGE('',*,*,#159,.T.);
#190=ORIENTED_EDGE('',*,*,#160,.F.);
#191=ORIENTED_EDGE('',*,*,#161,.T.);
#192=ORIENTED_EDGE('',*,*,#162,.T.);
#193=ORIENTED_EDGE('',*,*,#163,.T.);
#194=ORIENTED_EDGE('',*,*,#164,.F.);
#195=ORIENTED_EDGE('',*,*,#165,.T.);
#196=ORIENTED_EDGE('',*,*,#160,.T.);
#197=ORIENTED_EDGE('',*,*,#166,.T.);
#198=ORIENTED_EDGE('',*,*,#167,.F.);
#199=ORIENTED_EDGE('',*,*,#168,.T.);
#200=ORIENTED_EDGE('',*,*,#164,.T.);
#201=ORIENTED_EDGE('',*,*,#169,.T.);
#202=ORIENTED_EDGE('',*,*,#170,.F.);
#203=ORIENTED_EDGE('',*,*,#171,.T.);
#204=ORIENTED_EDGE('',*,*,#172,.T.);
#205=ORIENTED_EDGE('',*,*,#173,.T.);
#206=ORIENTED_EDGE('',*,*,#162,.F.);
#207=ORIENTED_EDGE('',*,*,#174,.T.);
#208=ORIENTED_EDGE('',*,*,#170,.T.);
#209=ORIENTED_EDGE('',*,*,#175,.T.);
#210=ORIENTED_EDGE('',*,*,#172,.F.);
#211=ORIENTED_EDGE('',*,*,#176,.T.);
#212=ORIENTED_EDGE('',*,*,#167,.T.);
#213=ORIENTED_EDGE('',*,*,#177,.T.);
#214=ORIENTED_EDGE('',*,*,#178,.T.);
#215=ORIENTED_EDGE('',*,*,#179,.F.);
#216=ORIENTED_EDGE('',*,*,#178,.F.);
#217=ORIENTED_EDGE('',*,*,#180,.T.);
#218=ORIENTED_EDGE('',*,*,#177,.F.);
#219=ORIENTED_EDGE('',*,*,#179,.T.);
#220=ORIENTED_EDGE('',*,*,#181,.T.);
#221=ORIENTED_EDGE('',*,*,#182,.F.);
#222=ORIENTED_EDGE('',*,*,#181,.F.);
#223=ORIENTED_EDGE('',*,*,#183,.T.);
#224=ORIENTED_EDGE('',*,*,#184,.T.);
#225=ORIENTED_EDGE('',*,*,#185,.F.);
#226=ORIENTED_EDGE('',*,*,#183,.F.);
#227=ORIENTED_EDGE('',*,*,#186,.F.);
#228=ORIENTED_EDGE('',*,*,#184,.F.);
#229=ORIENTED_EDGE('',*,*,#187,.T.);
#230=ORIENTED_EDGE('',*,*,#185,.T.);
#231=ORIENTED_EDGE('',*,*,#188,.T.);
#232=ORIENTED_EDGE('',*,*,#187,.F.);
#233=ORIENTED_EDGE('',*,*,#186,.T.);
#234=ORIENTED_EDGE('',*,*,#180,.F.);
#235=ORIENTED_EDGE('',*,*,#173,.F.);
#236=ORIENTED_EDGE('',*,*,#169,.F.);
#237=ORIENTED_EDGE('',*,*,#175,.F.);
#238=ORIENTED_EDGE('',*,*,#166,.F.);
#239=ORIENTED_EDGE('',*,*,#163,.F.);
#240=ORIENTED_EDGE('',*,*,#159,.F.);
#241=ORIENTED_EDGE('',*,*,#182,.T.);
#242=ORIENTED_EDGE('',*,*,#161,.F.);
#243=ORIENTED_EDGE('',*,*,#165,.F.);
#244=ORIENTED_EDGE('',*,*,#168,.F.);
#245=ORIENTED_EDGE('',*,*,#176,.F.);
#246=ORIENTED_EDGE('',*,*,#171,.F.);
#247=ORIENTED_EDGE('',*,*,#174,.F.);
#248=ORIENTED_EDGE('',*,*,#188,.F.);
#249=PLANE('',#281);
#250=PLANE('',#282);
#251=PLANE('',#283);
#252=PLANE('',#284);
#253=PLANE('',#285);
#254=PLANE('',#286);
#255=PLANE('',#290);
#256=PLANE('',#301);
#257=PLANE('',#309);
#258=PLANE('',#310);
#259=PLANE('',#311);
#260=ADVANCED_FACE('',(#48),#249,.T.);
#261=ADVANCED_FACE('',(#49),#250,.T.);
#262=ADVANCED_FACE('',(#50),#251,.T.);
#263=ADVANCED_FACE('',(#51),#252,.T.);
#264=ADVANCED_FACE('',(#52),#253,.T.);
#265=ADVANCED_FACE('',(#53),#254,.T.);
#266=ADVANCED_FACE('',(#54,#19),#44,.T.);
#267=ADVANCED_FACE('',(#55,#20),#255,.T.);
#268=ADVANCED_FACE('',(#56,#21),#15,.F.);
#269=ADVANCED_FACE('',(#57,#22),#45,.T.);
#270=ADVANCED_FACE('',(#58,#23),#16,.T.);
#271=ADVANCED_FACE('',(#59,#24),#46,.T.);
#272=ADVANCED_FACE('',(#60,#25),#256,.T.);
#273=ADVANCED_FACE('',(#61,#26),#17,.F.);
#274=ADVANCED_FACE('',(#62,#27),#47,.T.);
#275=ADVANCED_FACE('',(#63,#28),#18,.T.);
#276=ADVANCED_FACE('',(#64,#29),#257,.T.);
#277=ADVANCED_FACE('',(#65,#30),#258,.T.);
#278=ADVANCED_FACE('',(#66,#31),#259,.T.);
#279=CLOSED_SHELL('',(#260,#261,#262,#263,#264,#265,#266,#267,#268,#269,
#270,#271,#272,#273,#274,#275,#276,#277,#278));
#280=AXIS2_PLACEMENT_3D('placement',#394,#312,#313);
#281=AXIS2_PLACEMENT_3D('',#395,#314,#315);
#282=AXIS2_PLACEMENT_3D('',#404,#320,#321);
#283=AXIS2_PLACEMENT_3D('',#410,#325,#326);
#284=AXIS2_PLACEMENT_3D('',#416,#330,#331);
#285=AXIS2_PLACEMENT_3D('',#425,#336,#337);
#286=AXIS2_PLACEMENT_3D('',#428,#340,#341);
#287=AXIS2_PLACEMENT_3D('',#431,#344,#345);
#288=AXIS2_PLACEMENT_3D('',#433,#346,#347);
#289=AXIS2_PLACEMENT_3D('',#435,#348,#349);
#290=AXIS2_PLACEMENT_3D('',#436,#350,#351);
#291=AXIS2_PLACEMENT_3D('',#438,#352,#353);
#292=AXIS2_PLACEMENT_3D('',#439,#354,#355);
#293=AXIS2_PLACEMENT_3D('',#441,#356,#357);
#294=AXIS2_PLACEMENT_3D('',#442,#358,#359);
#295=AXIS2_PLACEMENT_3D('',#444,#360,#361);
#296=AXIS2_PLACEMENT_3D('',#445,#362,#363);
#297=AXIS2_PLACEMENT_3D('',#447,#364,#365);
#298=AXIS2_PLACEMENT_3D('',#448,#366,#367);
#299=AXIS2_PLACEMENT_3D('',#450,#368,#369);
#300=AXIS2_PLACEMENT_3D('',#452,#370,#371);
#301=AXIS2_PLACEMENT_3D('',#453,#372,#373);
#302=AXIS2_PLACEMENT_3D('',#455,#374,#375);
#303=AXIS2_PLACEMENT_3D('',#456,#376,#377);
#304=AXIS2_PLACEMENT_3D('',#458,#378,#379);
#305=AXIS2_PLACEMENT_3D('',#459,#380,#381);
#306=AXIS2_PLACEMENT_3D('',#461,#382,#383);
#307=AXIS2_PLACEMENT_3D('',#462,#384,#385);
#308=AXIS2_PLACEMENT_3D('',#464,#386,#387);
#309=AXIS2_PLACEMENT_3D('',#465,#388,#389);
#310=AXIS2_PLACEMENT_3D('',#466,#390,#391);
#311=AXIS2_PLACEMENT_3D('',#467,#392,#393);
#312=DIRECTION('axis',(0.,0.,1.));
#313=DIRECTION('refdir',(1.,0.,0.));
#314=DIRECTION('center_axis',(1.48028706898944E-16,-0.999993043845335,0.00372991433443701));
#315=DIRECTION('ref_axis',(0.,-0.00372991433443701,-0.999993043845335));
#316=DIRECTION('',(-6.85174147614316E-19,0.00372991433443701,0.999993043845335));
#317=DIRECTION('',(1.,1.48029736616687E-16,0.));
#318=DIRECTION('',(6.85174147614316E-19,-0.00372991433443701,-0.999993043845335));
#319=DIRECTION('',(1.,1.48029736616687E-16,0.));
#320=DIRECTION('center_axis',(7.35361877102365E-17,-0.496766321355104,0.867884336745005));
#321=DIRECTION('ref_axis',(1.77635683940025E-16,-0.867884336745005,-0.496766321355105));
#322=DIRECTION('',(-1.59427766253734E-16,0.867884336745005,0.496766321355104));
#323=DIRECTION('',(1.,1.48029736616687E-16,0.));
#324=DIRECTION('',(1.59427766253734E-16,-0.867884336745005,-0.496766321355104));
#325=DIRECTION('center_axis',(-7.44925191887073E-17,0.50322672249023,0.864154422410567));
#326=DIRECTION('ref_axis',(1.77635683940025E-16,-0.864154422410567,0.50322672249023));
#327=DIRECTION('',(-1.5874259210612E-16,0.864154422410567,-0.50322672249023));
#328=DIRECTION('',(1.,1.48029736616687E-16,0.));
#329=DIRECTION('',(1.5874259210612E-16,-0.864154422410567,0.50322672249023));
#330=DIRECTION('center_axis',(-7.35361877102367E-17,0.496766321355106,-0.867884336745004));
#331=DIRECTION('ref_axis',(-1.77635683940025E-16,0.867884336745004,0.496766321355106));
#332=DIRECTION('',(1.59427766253734E-16,-0.867884336745004,-0.496766321355106));
#333=DIRECTION('',(1.,1.48029736616687E-16,0.));
#334=DIRECTION('',(-1.59427766253734E-16,0.867884336745004,0.496766321355106));
#335=DIRECTION('',(1.,1.48029736616687E-16,0.));
#336=DIRECTION('center_axis',(7.44925191887072E-17,-0.503226722490229,-0.864154422410568));
#337=DIRECTION('ref_axis',(-1.77635683940025E-16,0.864154422410568,-0.503226722490229));
#338=DIRECTION('',(1.5874259210612E-16,-0.864154422410568,0.503226722490229));
#339=DIRECTION('',(-1.5874259210612E-16,0.864154422410568,-0.503226722490229));
#340=DIRECTION('center_axis',(-1.48028706898944E-16,0.999993043845335,-0.00372991433443723));
#341=DIRECTION('ref_axis',(0.,0.00372991433443737,0.999993043845335));
#342=DIRECTION('',(6.85174147614358E-19,-0.00372991433443723,-0.999993043845335));
#343=DIRECTION('',(-6.85174147614358E-19,0.00372991433443723,0.999993043845335));
#344=DIRECTION('center_axis',(-1.,-1.83697019872103E-16,0.));
#345=DIRECTION('ref_axis',(0.,0.,1.));
#346=DIRECTION('center_axis',(-1.,-1.83697019872103E-16,0.));
#347=DIRECTION('ref_axis',(-1.83700530718772E-16,1.,6.12323399573677E-17));
#348=DIRECTION('center_axis',(1.,1.83697019872103E-16,0.));
#349=DIRECTION('ref_axis',(-1.83697019872103E-16,1.,6.12323399573676E-17));
#350=DIRECTION('center_axis',(1.,1.83697019872103E-16,0.));
#351=DIRECTION('ref_axis',(0.,0.,-1.));
#352=DIRECTION('center_axis',(-1.,-1.83697019872103E-16,0.));
#353=DIRECTION('ref_axis',(-1.83697019872103E-16,1.,6.12323399573677E-17));
#354=DIRECTION('center_axis',(-1.,-1.83697019872103E-16,0.));
#355=DIRECTION('ref_axis',(1.83697019872103E-16,-1.,0.));
#356=DIRECTION('center_axis',(-1.,-1.83697019872103E-16,0.));
#357=DIRECTION('ref_axis',(0.,0.,1.));
#358=DIRECTION('center_axis',(-1.,-1.83697019872103E-16,0.));
#359=DIRECTION('ref_axis',(0.,0.,1.));
#360=DIRECTION('center_axis',(1.,1.83697019872103E-16,0.));
#361=DIRECTION('ref_axis',(-1.83700530718772E-16,1.,6.12323399573677E-17));
#362=DIRECTION('center_axis',(-1.,-1.83697019872103E-16,0.));
#363=DIRECTION('ref_axis',(1.83697019872103E-16,-1.,0.));
#364=DIRECTION('center_axis',(-1.,-1.83697019872103E-16,0.));
#365=DIRECTION('ref_axis',(0.,0.,1.));
#366=DIRECTION('center_axis',(-1.,-1.83697019872103E-16,0.));
#367=DIRECTION('ref_axis',(0.,0.,1.));
#368=DIRECTION('center_axis',(-1.,-1.83697019872103E-16,0.));
#369=DIRECTION('ref_axis',(-1.83697019872103E-16,1.,6.12323399573677E-17));
#370=DIRECTION('center_axis',(1.,1.83697019872103E-16,0.));
#371=DIRECTION('ref_axis',(-1.82607963124269E-16,1.,6.12323399573677E-17));
#372=DIRECTION('center_axis',(-1.,-1.83697019872103E-16,0.));
#373=DIRECTION('ref_axis',(0.,0.,1.));
#374=DIRECTION('center_axis',(1.,1.83697019872103E-16,0.));
#375=DIRECTION('ref_axis',(-1.83697019872103E-16,1.,6.12323399573677E-17));
#376=DIRECTION('center_axis',(-1.,-1.83697019872103E-16,0.));
#377=DIRECTION('ref_axis',(1.83697019872103E-16,-1.,0.));
#378=DIRECTION('center_axis',(-1.,-1.83697019872103E-16,0.));
#379=DIRECTION('ref_axis',(0.,0.,1.));
#380=DIRECTION('center_axis',(-1.,-1.83697019872103E-16,0.));
#381=DIRECTION('ref_axis',(0.,0.,1.));
#382=DIRECTION('center_axis',(-1.,-1.83697019872103E-16,0.));
#383=DIRECTION('ref_axis',(-1.83651437199265E-16,1.,6.12323399573677E-17));
#384=DIRECTION('center_axis',(-1.,-1.83697019872103E-16,0.));
#385=DIRECTION('ref_axis',(1.83697019872103E-16,-1.,0.));
#386=DIRECTION('center_axis',(-1.,-1.83697019872103E-16,0.));
#387=DIRECTION('ref_axis',(0.,0.,1.));
#388=DIRECTION('center_axis',(-1.,-1.83697019872103E-16,0.));
#389=DIRECTION('ref_axis',(0.,0.,1.));
#390=DIRECTION('center_axis',(1.,1.83697019872103E-16,0.));
#391=DIRECTION('ref_axis',(0.,0.,-1.));
#392=DIRECTION('center_axis',(-1.,-1.83697019872103E-16,0.));
#393=DIRECTION('ref_axis',(0.,0.,1.));
#394=CARTESIAN_POINT('',(0.,0.,0.));
#395=CARTESIAN_POINT('Origin',(-6.5,-17.9611123824053,10.4593710129533));
#396=CARTESIAN_POINT('',(3.5,-18.0386371960268,-10.3250940969136));
#397=CARTESIAN_POINT('',(3.5,-17.9611123824053,10.4593710129533));
#398=CARTESIAN_POINT('',(3.5,-17.9804935858106,5.26325473548658));
#399=CARTESIAN_POINT('',(-6.5,-17.9611123824053,10.4593710129533));
#400=CARTESIAN_POINT('',(-6.5,-17.9611123824053,10.4593710129533));
#401=CARTESIAN_POINT('',(-6.5,-18.0386371960268,-10.3250940969136));
#402=CARTESIAN_POINT('',(-6.5,-17.9611123824053,10.4593710129533));
#403=CARTESIAN_POINT('',(-6.5,-18.0386371960268,-10.3250940969136));
#404=CARTESIAN_POINT('Origin',(-6.5,0.0775248136215115,20.7844651098669));
#405=CARTESIAN_POINT('',(3.5,0.077524813621513,20.7844651098669));
#406=CARTESIAN_POINT('',(3.5,-4.43213448538518,18.2031915856385));
#407=CARTESIAN_POINT('',(-6.5,0.0775248136215115,20.7844651098669));
#408=CARTESIAN_POINT('',(-6.5,0.0775248136215115,20.7844651098669));
#409=CARTESIAN_POINT('',(-6.5,0.0775248136215115,20.7844651098669));
#410=CARTESIAN_POINT('Origin',(-6.50000000000001,18.0386371960268,10.3250940969136));
#411=CARTESIAN_POINT('',(3.5,18.0386371960268,10.3250940969136));
#412=CARTESIAN_POINT('',(3.5,13.5483591004255,12.9399368501519));
#413=CARTESIAN_POINT('',(-6.50000000000001,18.0386371960268,10.3250940969136));
#414=CARTESIAN_POINT('',(-6.50000000000001,18.0386371960268,10.3250940969136));
#415=CARTESIAN_POINT('',(-6.50000000000001,18.0386371960268,10.3250940969136));
#416=CARTESIAN_POINT('Origin',(-6.5,-0.0775248136214842,-20.7844651098669));
#417=CARTESIAN_POINT('',(3.5,17.9611123824053,-10.4593710129533));
#418=CARTESIAN_POINT('',(3.5,-0.0775248136214827,-20.7844651098669));
#419=CARTESIAN_POINT('',(3.5,4.43213448538522,-18.2031915856385));
#420=CARTESIAN_POINT('',(-6.5,-0.0775248136214842,-20.7844651098669));
#421=CARTESIAN_POINT('',(-6.5,-0.0775248136214842,-20.7844651098669));
#422=CARTESIAN_POINT('',(-6.50000000000001,17.9611123824053,-10.4593710129533));
#423=CARTESIAN_POINT('',(-6.5,-0.0775248136214842,-20.7844651098669));
#424=CARTESIAN_POINT('',(-6.50000000000001,17.9611123824053,-10.4593710129533));
#425=CARTESIAN_POINT('Origin',(-6.5,-18.0386371960268,-10.3250940969136));
#426=CARTESIAN_POINT('',(3.5,-13.5483591004254,-12.9399368501519));
#427=CARTESIAN_POINT('',(-6.5,-18.0386371960268,-10.3250940969136));
#428=CARTESIAN_POINT('Origin',(-6.50000000000001,17.999874789216,-0.0671384580198287));
#429=CARTESIAN_POINT('',(3.5,17.9998747892161,-0.0671384580198539));
#430=CARTESIAN_POINT('',(-6.50000000000001,17.9611123824053,-10.4593710129533));
#431=CARTESIAN_POINT('Origin',(22.23559,8.21779456522025E-15,0.));
#432=CARTESIAN_POINT('',(22.23559,-10.5764,6.47617720325104E-16));
#433=CARTESIAN_POINT('Origin',(22.23559,8.21779456522025E-15,0.));
#434=CARTESIAN_POINT('',(22.5,-10.84081,-1.99142448999969E-15));
#435=CARTESIAN_POINT('Origin',(22.5,8.26636589424463E-15,0.));
#436=CARTESIAN_POINT('Origin',(22.5,-13.2205,0.));
#437=CARTESIAN_POINT('',(22.5,-12.95609,7.93331707398252E-16));
#438=CARTESIAN_POINT('Origin',(22.5,8.26636589424463E-15,0.));
#439=CARTESIAN_POINT('Origin',(11.1,6.17221986770266E-15,0.));
#440=CARTESIAN_POINT('',(-0.300000000000005,-10.5764,0.));
#441=CARTESIAN_POINT('Origin',(-0.300000000000007,4.07807384116068E-15,
0.));
#442=CARTESIAN_POINT('Origin',(22.23559,8.21779456522025E-15,0.));
#443=CARTESIAN_POINT('',(22.23559,-13.2205,-2.42856645121914E-15));
#444=CARTESIAN_POINT('Origin',(22.23559,8.21779456522025E-15,0.));
#445=CARTESIAN_POINT('Origin',(13.,6.52124420545965E-15,0.));
#446=CARTESIAN_POINT('',(3.5,-13.2205,0.));
#447=CARTESIAN_POINT('Origin',(3.5,4.77612251667468E-15,0.));
#448=CARTESIAN_POINT('Origin',(-22.23559,4.8571329024383E-17,0.));
#449=CARTESIAN_POINT('',(-22.5,-13.56401,8.30556071505135E-16));
#450=CARTESIAN_POINT('Origin',(-22.5,-5.23852944873328E-31,0.));
#451=CARTESIAN_POINT('',(-22.23559,-13.2996,-2.44309688549102E-15));
#452=CARTESIAN_POINT('Origin',(-22.23559,4.8571329024383E-17,0.));
#453=CARTESIAN_POINT('Origin',(-22.5,-13.2996,0.));
#454=CARTESIAN_POINT('',(-22.5,-16.36009,-3.00529977783939E-15));
#455=CARTESIAN_POINT('Origin',(-22.5,-2.77333911991762E-31,0.));
#456=CARTESIAN_POINT('Origin',(-11.4,2.03903692058034E-15,0.));
#457=CARTESIAN_POINT('',(-0.300000000000002,-13.2996,0.));
#458=CARTESIAN_POINT('Origin',(-0.300000000000007,4.07807384116068E-15,
0.));
#459=CARTESIAN_POINT('Origin',(-22.23559,4.85713290243832E-17,0.));
#460=CARTESIAN_POINT('',(-22.23559,-16.6245,1.01795703562126E-15));
#461=CARTESIAN_POINT('Origin',(-22.23559,4.85713290243832E-17,0.));
#462=CARTESIAN_POINT('Origin',(-14.5,1.46957615897682E-15,0.));
#463=CARTESIAN_POINT('',(-6.5,-16.6245,0.));
#464=CARTESIAN_POINT('Origin',(-6.5,2.93915231795365E-15,0.));
#465=CARTESIAN_POINT('Origin',(-0.300000000000005,-10.5764,0.));
#466=CARTESIAN_POINT('Origin',(3.5,-18.,0.));
#467=CARTESIAN_POINT('Origin',(-6.5,-16.6245,0.));
#468=UNCERTAINTY_MEASURE_WITH_UNIT(LENGTH_MEASURE(0.01),#472,
'DISTANCE_ACCURACY_VALUE',
'Maximum model space distance between geometric entities at asserted c
onnectivities');
#469=UNCERTAINTY_MEASURE_WITH_UNIT(LENGTH_MEASURE(1.E-6),#472,
'DISTANCE_ACCURACY_VALUE',
'Maximum model space distance between geometric entities at asserted c
onnectivities');
#470=(
GEOMETRIC_REPRESENTATION_CONTEXT(3)
GLOBAL_UNCERTAINTY_ASSIGNED_CONTEXT((#468))
GLOBAL_UNIT_ASSIGNED_CONTEXT((#472,#475,#473))
REPRESENTATION_CONTEXT('','3D')
);
#471=(
GEOMETRIC_REPRESENTATION_CONTEXT(3)
GLOBAL_UNCERTAINTY_ASSIGNED_CONTEXT((#469))
GLOBAL_UNIT_ASSIGNED_CONTEXT((#472,#475,#473))
REPRESENTATION_CONTEXT('','3D')
);
#472=(
LENGTH_UNIT()
NAMED_UNIT(*)
SI_UNIT(.MILLI.,.METRE.)
);
#473=(
NAMED_UNIT(*)
SI_UNIT($,.STERADIAN.)
SOLID_ANGLE_UNIT()
);
#474=DIMENSIONAL_EXPONENTS(0.,0.,0.,0.,0.,0.,0.);
#475=(
CONVERSION_BASED_UNIT('degree',#477)
NAMED_UNIT(#474)
PLANE_ANGLE_UNIT()
);
#476=(
NAMED_UNIT(*)
PLANE_ANGLE_UNIT()
SI_UNIT($,.RADIAN.)
);
#477=PLANE_ANGLE_MEASURE_WITH_UNIT(PLANE_ANGLE_MEASURE(0.01745329252),#476);
#478=SHAPE_DEFINITION_REPRESENTATION(#479,#480);
#479=PRODUCT_DEFINITION_SHAPE('',$,#482);
#480=SHAPE_REPRESENTATION('',(#280),#470);
#481=PRODUCT_DEFINITION_CONTEXT('part definition',#486,'design');
#482=PRODUCT_DEFINITION('051601010007','051601010007',#483,#481);
#483=PRODUCT_DEFINITION_FORMATION('',$,#488);
#484=PRODUCT_RELATED_PRODUCT_CATEGORY('051601010007','051601010007',(#488));
#485=APPLICATION_PROTOCOL_DEFINITION('international standard',
'automotive_design',2009,#486);
#486=APPLICATION_CONTEXT(
'Core Data for Automotive Mechanical Design Process');
#487=PRODUCT_CONTEXT('part definition',#486,'mechanical');
#488=PRODUCT('051601010007','051601010007',$,(#487));
#489=PRESENTATION_STYLE_ASSIGNMENT((#490));
#490=SURFACE_STYLE_USAGE(.BOTH.,#491);
#491=SURFACE_SIDE_STYLE($,(#492));
#492=SURFACE_STYLE_FILL_AREA(#493);
#493=FILL_AREA_STYLE($,(#494));
#494=FILL_AREA_STYLE_COLOUR($,#495);
#495=COLOUR_RGB('',0.749019607843137,0.749019607843137,0.749019607843137);
ENDSEC;
END-ISO-10303-21;
