ISO-10303-21;
HEADER;
/* Generated by software containing ST-Developer
 * from STEP Tools, Inc. (www.steptools.com) 
 */

FILE_DESCRIPTION(
/* description */ ('PLASSON TEE-CEMENT PVC 140'),
/* implementation_level */ '2;1');

FILE_NAME(
/* name */ 
'C:\\Dropbox\\KIMPROJECTS-Inventor\\99-16-3568-Processing\\PVC Catalog
 2017\\050400\\050400140.ipt.stp',
/* time_stamp */ '2017-12-07T15:54:30+02:00',
/* author */ ('KIM'),
/* organization */ (''),
/* preprocessor_version */ 'ST-DEVELOPER v15.6',
/* originating_system */ 'Autodesk Inventor 2015',
/* authorisation */ '');

FILE_SCHEMA (('AUTOMOTIVE_DESIGN { 1 0 10303 214 3 1 1 }'));
ENDSEC;

DATA;
#10=MECHANICAL_DESIGN_GEOMETRIC_PRESENTATION_REPRESENTATION('',(#13),#437);
#11=SHAPE_REPRESENTATION_RELATIONSHIP('SRR','None',#446,#12);
#12=ADVANCED_BREP_SHAPE_REPRESENTATION($,(#14),#436);
#13=STYLED_ITEM('',(#455),#14);
#14=MANIFOLD_SOLID_BREP('Solid1',#243);
#15=ELLIPSE('',#253,114.551298552221,81.);
#16=ELLIPSE('',#254,114.551298552221,81.);
#17=ELLIPSE('',#263,89.095454429505,63.);
#18=ELLIPSE('',#264,89.095454429505,63.);
#19=CYLINDRICAL_SURFACE('',#252,81.);
#20=CYLINDRICAL_SURFACE('',#255,70.);
#21=CYLINDRICAL_SURFACE('',#259,80.9999999999999);
#22=CYLINDRICAL_SURFACE('',#262,63.);
#23=CYLINDRICAL_SURFACE('',#270,70.);
#24=CYLINDRICAL_SURFACE('',#278,70.);
#25=CYLINDRICAL_SURFACE('',#283,63.);
#26=PLANE('',#248);
#27=PLANE('',#257);
#28=PLANE('',#268);
#29=PLANE('',#276);
#30=PLANE('',#281);
#31=PLANE('',#285);
#32=FACE_BOUND('',#73,.T.);
#33=FACE_BOUND('',#75,.T.);
#34=FACE_BOUND('',#77,.T.);
#35=FACE_BOUND('',#79,.T.);
#36=FACE_BOUND('',#81,.T.);
#37=FACE_BOUND('',#83,.T.);
#38=FACE_BOUND('',#85,.T.);
#39=FACE_BOUND('',#86,.T.);
#40=FACE_BOUND('',#88,.T.);
#41=FACE_BOUND('',#90,.T.);
#42=FACE_BOUND('',#92,.T.);
#43=FACE_BOUND('',#94,.T.);
#44=FACE_BOUND('',#96,.T.);
#45=FACE_BOUND('',#98,.T.);
#46=FACE_BOUND('',#100,.T.);
#47=FACE_BOUND('',#102,.T.);
#48=FACE_BOUND('',#104,.T.);
#49=FACE_BOUND('',#106,.T.);
#50=FACE_BOUND('',#108,.T.);
#51=FACE_BOUND('',#109,.T.);
#52=FACE_BOUND('',#111,.T.);
#53=FACE_OUTER_BOUND('',#72,.T.);
#54=FACE_OUTER_BOUND('',#74,.T.);
#55=FACE_OUTER_BOUND('',#76,.T.);
#56=FACE_OUTER_BOUND('',#78,.T.);
#57=FACE_OUTER_BOUND('',#80,.T.);
#58=FACE_OUTER_BOUND('',#82,.T.);
#59=FACE_OUTER_BOUND('',#84,.T.);
#60=FACE_OUTER_BOUND('',#87,.T.);
#61=FACE_OUTER_BOUND('',#89,.T.);
#62=FACE_OUTER_BOUND('',#91,.T.);
#63=FACE_OUTER_BOUND('',#93,.T.);
#64=FACE_OUTER_BOUND('',#95,.T.);
#65=FACE_OUTER_BOUND('',#97,.T.);
#66=FACE_OUTER_BOUND('',#99,.T.);
#67=FACE_OUTER_BOUND('',#101,.T.);
#68=FACE_OUTER_BOUND('',#103,.T.);
#69=FACE_OUTER_BOUND('',#105,.T.);
#70=FACE_OUTER_BOUND('',#107,.T.);
#71=FACE_OUTER_BOUND('',#110,.T.);
#72=EDGE_LOOP('',(#174));
#73=EDGE_LOOP('',(#175));
#74=EDGE_LOOP('',(#176));
#75=EDGE_LOOP('',(#177));
#76=EDGE_LOOP('',(#178));
#77=EDGE_LOOP('',(#179));
#78=EDGE_LOOP('',(#180,#181));
#79=EDGE_LOOP('',(#182));
#80=EDGE_LOOP('',(#183));
#81=EDGE_LOOP('',(#184));
#82=EDGE_LOOP('',(#185));
#83=EDGE_LOOP('',(#186));
#84=EDGE_LOOP('',(#187));
#85=EDGE_LOOP('',(#188,#189));
#86=EDGE_LOOP('',(#190));
#87=EDGE_LOOP('',(#191));
#88=EDGE_LOOP('',(#192,#193));
#89=EDGE_LOOP('',(#194));
#90=EDGE_LOOP('',(#195));
#91=EDGE_LOOP('',(#196));
#92=EDGE_LOOP('',(#197));
#93=EDGE_LOOP('',(#198));
#94=EDGE_LOOP('',(#199));
#95=EDGE_LOOP('',(#200));
#96=EDGE_LOOP('',(#201));
#97=EDGE_LOOP('',(#202));
#98=EDGE_LOOP('',(#203));
#99=EDGE_LOOP('',(#204));
#100=EDGE_LOOP('',(#205));
#101=EDGE_LOOP('',(#206));
#102=EDGE_LOOP('',(#207));
#103=EDGE_LOOP('',(#208));
#104=EDGE_LOOP('',(#209));
#105=EDGE_LOOP('',(#210));
#106=EDGE_LOOP('',(#211));
#107=EDGE_LOOP('',(#212));
#108=EDGE_LOOP('',(#213,#214));
#109=EDGE_LOOP('',(#215));
#110=EDGE_LOOP('',(#216));
#111=EDGE_LOOP('',(#217));
#112=CIRCLE('',#246,71.4);
#113=CIRCLE('',#247,70.);
#114=CIRCLE('',#249,79.6);
#115=CIRCLE('',#251,81.);
#116=CIRCLE('',#256,70.);
#117=CIRCLE('',#258,63.);
#118=CIRCLE('',#260,80.9999999999999);
#119=CIRCLE('',#261,80.9999999999999);
#120=CIRCLE('',#266,70.);
#121=CIRCLE('',#267,71.4);
#122=CIRCLE('',#269,79.6);
#123=CIRCLE('',#271,70.);
#124=CIRCLE('',#274,71.3999999999999);
#125=CIRCLE('',#275,70.);
#126=CIRCLE('',#277,79.6);
#127=CIRCLE('',#279,70.);
#128=CIRCLE('',#282,63.);
#129=CIRCLE('',#284,63.);
#130=VERTEX_POINT('',#372);
#131=VERTEX_POINT('',#374);
#132=VERTEX_POINT('',#377);
#133=VERTEX_POINT('',#380);
#134=VERTEX_POINT('',#383);
#135=VERTEX_POINT('',#384);
#136=VERTEX_POINT('',#388);
#137=VERTEX_POINT('',#391);
#138=VERTEX_POINT('',#394);
#139=VERTEX_POINT('',#396);
#140=VERTEX_POINT('',#399);
#141=VERTEX_POINT('',#400);
#142=VERTEX_POINT('',#404);
#143=VERTEX_POINT('',#406);
#144=VERTEX_POINT('',#409);
#145=VERTEX_POINT('',#412);
#146=VERTEX_POINT('',#416);
#147=VERTEX_POINT('',#418);
#148=VERTEX_POINT('',#421);
#149=VERTEX_POINT('',#424);
#150=VERTEX_POINT('',#428);
#151=VERTEX_POINT('',#431);
#152=EDGE_CURVE('',#130,#130,#112,.T.);
#153=EDGE_CURVE('',#131,#131,#113,.T.);
#154=EDGE_CURVE('',#132,#132,#114,.T.);
#155=EDGE_CURVE('',#133,#133,#115,.T.);
#156=EDGE_CURVE('',#134,#135,#15,.T.);
#157=EDGE_CURVE('',#135,#134,#16,.T.);
#158=EDGE_CURVE('',#136,#136,#116,.T.);
#159=EDGE_CURVE('',#137,#137,#117,.T.);
#160=EDGE_CURVE('',#138,#138,#118,.T.);
#161=EDGE_CURVE('',#139,#139,#119,.T.);
#162=EDGE_CURVE('',#140,#141,#17,.T.);
#163=EDGE_CURVE('',#141,#140,#18,.T.);
#164=EDGE_CURVE('',#142,#142,#120,.T.);
#165=EDGE_CURVE('',#143,#143,#121,.T.);
#166=EDGE_CURVE('',#144,#144,#122,.T.);
#167=EDGE_CURVE('',#145,#145,#123,.T.);
#168=EDGE_CURVE('',#146,#146,#124,.T.);
#169=EDGE_CURVE('',#147,#147,#125,.T.);
#170=EDGE_CURVE('',#148,#148,#126,.T.);
#171=EDGE_CURVE('',#149,#149,#127,.T.);
#172=EDGE_CURVE('',#150,#150,#128,.T.);
#173=EDGE_CURVE('',#151,#151,#129,.T.);
#174=ORIENTED_EDGE('',*,*,#152,.T.);
#175=ORIENTED_EDGE('',*,*,#153,.T.);
#176=ORIENTED_EDGE('',*,*,#154,.F.);
#177=ORIENTED_EDGE('',*,*,#152,.F.);
#178=ORIENTED_EDGE('',*,*,#155,.T.);
#179=ORIENTED_EDGE('',*,*,#154,.T.);
#180=ORIENTED_EDGE('',*,*,#156,.F.);
#181=ORIENTED_EDGE('',*,*,#157,.F.);
#182=ORIENTED_EDGE('',*,*,#155,.F.);
#183=ORIENTED_EDGE('',*,*,#153,.F.);
#184=ORIENTED_EDGE('',*,*,#158,.F.);
#185=ORIENTED_EDGE('',*,*,#158,.T.);
#186=ORIENTED_EDGE('',*,*,#159,.F.);
#187=ORIENTED_EDGE('',*,*,#160,.F.);
#188=ORIENTED_EDGE('',*,*,#156,.T.);
#189=ORIENTED_EDGE('',*,*,#157,.T.);
#190=ORIENTED_EDGE('',*,*,#161,.F.);
#191=ORIENTED_EDGE('',*,*,#159,.T.);
#192=ORIENTED_EDGE('',*,*,#162,.F.);
#193=ORIENTED_EDGE('',*,*,#163,.F.);
#194=ORIENTED_EDGE('',*,*,#164,.T.);
#195=ORIENTED_EDGE('',*,*,#165,.T.);
#196=ORIENTED_EDGE('',*,*,#166,.F.);
#197=ORIENTED_EDGE('',*,*,#165,.F.);
#198=ORIENTED_EDGE('',*,*,#167,.T.);
#199=ORIENTED_EDGE('',*,*,#164,.F.);
#200=ORIENTED_EDGE('',*,*,#166,.T.);
#201=ORIENTED_EDGE('',*,*,#160,.T.);
#202=ORIENTED_EDGE('',*,*,#168,.T.);
#203=ORIENTED_EDGE('',*,*,#169,.T.);
#204=ORIENTED_EDGE('',*,*,#170,.F.);
#205=ORIENTED_EDGE('',*,*,#168,.F.);
#206=ORIENTED_EDGE('',*,*,#171,.F.);
#207=ORIENTED_EDGE('',*,*,#169,.F.);
#208=ORIENTED_EDGE('',*,*,#161,.T.);
#209=ORIENTED_EDGE('',*,*,#170,.T.);
#210=ORIENTED_EDGE('',*,*,#171,.T.);
#211=ORIENTED_EDGE('',*,*,#172,.F.);
#212=ORIENTED_EDGE('',*,*,#172,.T.);
#213=ORIENTED_EDGE('',*,*,#162,.T.);
#214=ORIENTED_EDGE('',*,*,#163,.T.);
#215=ORIENTED_EDGE('',*,*,#173,.F.);
#216=ORIENTED_EDGE('',*,*,#167,.F.);
#217=ORIENTED_EDGE('',*,*,#173,.T.);
#218=TOROIDAL_SURFACE('',#245,71.4,1.4);
#219=TOROIDAL_SURFACE('',#250,79.6,1.4);
#220=TOROIDAL_SURFACE('',#265,71.4,1.4);
#221=TOROIDAL_SURFACE('',#272,79.6,1.4);
#222=TOROIDAL_SURFACE('',#273,71.3999999999999,1.4);
#223=TOROIDAL_SURFACE('',#280,79.6,1.4);
#224=ADVANCED_FACE('',(#53,#32),#218,.T.);
#225=ADVANCED_FACE('',(#54,#33),#26,.T.);
#226=ADVANCED_FACE('',(#55,#34),#219,.T.);
#227=ADVANCED_FACE('',(#56,#35),#19,.T.);
#228=ADVANCED_FACE('',(#57,#36),#20,.F.);
#229=ADVANCED_FACE('',(#58,#37),#27,.T.);
#230=ADVANCED_FACE('',(#59,#38,#39),#21,.T.);
#231=ADVANCED_FACE('',(#60,#40),#22,.F.);
#232=ADVANCED_FACE('',(#61,#41),#220,.T.);
#233=ADVANCED_FACE('',(#62,#42),#28,.T.);
#234=ADVANCED_FACE('',(#63,#43),#23,.F.);
#235=ADVANCED_FACE('',(#64,#44),#221,.T.);
#236=ADVANCED_FACE('',(#65,#45),#222,.T.);
#237=ADVANCED_FACE('',(#66,#46),#29,.T.);
#238=ADVANCED_FACE('',(#67,#47),#24,.F.);
#239=ADVANCED_FACE('',(#68,#48),#223,.T.);
#240=ADVANCED_FACE('',(#69,#49),#30,.T.);
#241=ADVANCED_FACE('',(#70,#50,#51),#25,.F.);
#242=ADVANCED_FACE('',(#71,#52),#31,.T.);
#243=CLOSED_SHELL('',(#224,#225,#226,#227,#228,#229,#230,#231,#232,#233,
#234,#235,#236,#237,#238,#239,#240,#241,#242));
#244=AXIS2_PLACEMENT_3D('placement',#370,#286,#287);
#245=AXIS2_PLACEMENT_3D('',#371,#288,#289);
#246=AXIS2_PLACEMENT_3D('',#373,#290,#291);
#247=AXIS2_PLACEMENT_3D('',#375,#292,#293);
#248=AXIS2_PLACEMENT_3D('',#376,#294,#295);
#249=AXIS2_PLACEMENT_3D('',#378,#296,#297);
#250=AXIS2_PLACEMENT_3D('',#379,#298,#299);
#251=AXIS2_PLACEMENT_3D('',#381,#300,#301);
#252=AXIS2_PLACEMENT_3D('',#382,#302,#303);
#253=AXIS2_PLACEMENT_3D('',#385,#304,#305);
#254=AXIS2_PLACEMENT_3D('',#386,#306,#307);
#255=AXIS2_PLACEMENT_3D('',#387,#308,#309);
#256=AXIS2_PLACEMENT_3D('',#389,#310,#311);
#257=AXIS2_PLACEMENT_3D('',#390,#312,#313);
#258=AXIS2_PLACEMENT_3D('',#392,#314,#315);
#259=AXIS2_PLACEMENT_3D('',#393,#316,#317);
#260=AXIS2_PLACEMENT_3D('',#395,#318,#319);
#261=AXIS2_PLACEMENT_3D('',#397,#320,#321);
#262=AXIS2_PLACEMENT_3D('',#398,#322,#323);
#263=AXIS2_PLACEMENT_3D('',#401,#324,#325);
#264=AXIS2_PLACEMENT_3D('',#402,#326,#327);
#265=AXIS2_PLACEMENT_3D('',#403,#328,#329);
#266=AXIS2_PLACEMENT_3D('',#405,#330,#331);
#267=AXIS2_PLACEMENT_3D('',#407,#332,#333);
#268=AXIS2_PLACEMENT_3D('',#408,#334,#335);
#269=AXIS2_PLACEMENT_3D('',#410,#336,#337);
#270=AXIS2_PLACEMENT_3D('',#411,#338,#339);
#271=AXIS2_PLACEMENT_3D('',#413,#340,#341);
#272=AXIS2_PLACEMENT_3D('',#414,#342,#343);
#273=AXIS2_PLACEMENT_3D('',#415,#344,#345);
#274=AXIS2_PLACEMENT_3D('',#417,#346,#347);
#275=AXIS2_PLACEMENT_3D('',#419,#348,#349);
#276=AXIS2_PLACEMENT_3D('',#420,#350,#351);
#277=AXIS2_PLACEMENT_3D('',#422,#352,#353);
#278=AXIS2_PLACEMENT_3D('',#423,#354,#355);
#279=AXIS2_PLACEMENT_3D('',#425,#356,#357);
#280=AXIS2_PLACEMENT_3D('',#426,#358,#359);
#281=AXIS2_PLACEMENT_3D('',#427,#360,#361);
#282=AXIS2_PLACEMENT_3D('',#429,#362,#363);
#283=AXIS2_PLACEMENT_3D('',#430,#364,#365);
#284=AXIS2_PLACEMENT_3D('',#432,#366,#367);
#285=AXIS2_PLACEMENT_3D('',#433,#368,#369);
#286=DIRECTION('axis',(0.,0.,1.));
#287=DIRECTION('refdir',(1.,0.,0.));
#288=DIRECTION('center_axis',(0.,1.,0.));
#289=DIRECTION('ref_axis',(0.,0.,1.));
#290=DIRECTION('center_axis',(0.,1.,0.));
#291=DIRECTION('ref_axis',(1.,0.,0.));
#292=DIRECTION('center_axis',(0.,-1.,0.));
#293=DIRECTION('ref_axis',(1.,0.,0.));
#294=DIRECTION('center_axis',(0.,1.,0.));
#295=DIRECTION('ref_axis',(0.,0.,1.));
#296=DIRECTION('center_axis',(0.,-1.,0.));
#297=DIRECTION('ref_axis',(1.,0.,0.));
#298=DIRECTION('center_axis',(0.,1.,0.));
#299=DIRECTION('ref_axis',(0.,0.,1.));
#300=DIRECTION('center_axis',(0.,1.,0.));
#301=DIRECTION('ref_axis',(1.,0.,0.));
#302=DIRECTION('center_axis',(0.,1.,0.));
#303=DIRECTION('ref_axis',(-1.,0.,0.));
#304=DIRECTION('center_axis',(0.707106781186547,-0.707106781186548,0.));
#305=DIRECTION('ref_axis',(-0.707106781186548,-0.707106781186547,0.));
#306=DIRECTION('center_axis',(-0.707106781186547,-0.707106781186548,0.));
#307=DIRECTION('ref_axis',(-0.707106781186548,0.707106781186547,0.));
#308=DIRECTION('center_axis',(0.,-1.,0.));
#309=DIRECTION('ref_axis',(-1.,0.,0.));
#310=DIRECTION('center_axis',(0.,1.,0.));
#311=DIRECTION('ref_axis',(1.,0.,0.));
#312=DIRECTION('center_axis',(0.,1.,0.));
#313=DIRECTION('ref_axis',(0.,0.,1.));
#314=DIRECTION('center_axis',(0.,1.,0.));
#315=DIRECTION('ref_axis',(-1.,0.,0.));
#316=DIRECTION('center_axis',(1.,1.83697019872103E-16,0.));
#317=DIRECTION('ref_axis',(-1.90323947078598E-16,1.,0.));
#318=DIRECTION('center_axis',(-1.,-1.83697019872103E-16,0.));
#319=DIRECTION('ref_axis',(1.85037170770859E-16,-1.,1.83697019872103E-16));
#320=DIRECTION('center_axis',(1.,1.83697019872103E-16,0.));
#321=DIRECTION('ref_axis',(1.8503717077086E-16,-1.,1.83697019872103E-16));
#322=DIRECTION('center_axis',(0.,-1.,0.));
#323=DIRECTION('ref_axis',(-1.,0.,0.));
#324=DIRECTION('center_axis',(0.707106781186547,0.707106781186548,0.));
#325=DIRECTION('ref_axis',(-0.707106781186548,0.707106781186547,0.));
#326=DIRECTION('center_axis',(-0.707106781186547,0.707106781186548,0.));
#327=DIRECTION('ref_axis',(-0.707106781186548,-0.707106781186547,0.));
#328=DIRECTION('center_axis',(1.,1.83697019872103E-16,0.));
#329=DIRECTION('ref_axis',(0.,0.,-1.));
#330=DIRECTION('center_axis',(1.,1.83697019872103E-16,0.));
#331=DIRECTION('ref_axis',(1.8239378261699E-16,-1.,1.83697019872103E-16));
#332=DIRECTION('center_axis',(-1.,-1.83697019872103E-16,0.));
#333=DIRECTION('ref_axis',(1.83697019872103E-16,-1.,1.83697019872103E-16));
#334=DIRECTION('center_axis',(-1.,-1.83697019872103E-16,0.));
#335=DIRECTION('ref_axis',(0.,0.,1.));
#336=DIRECTION('center_axis',(1.,1.83697019872103E-16,0.));
#337=DIRECTION('ref_axis',(1.83697019872103E-16,-1.,1.83697019872103E-16));
#338=DIRECTION('center_axis',(1.,1.83697019872103E-16,0.));
#339=DIRECTION('ref_axis',(-1.90323947078598E-16,1.,0.));
#340=DIRECTION('center_axis',(1.,1.83697019872103E-16,0.));
#341=DIRECTION('ref_axis',(0.,0.,-1.));
#342=DIRECTION('center_axis',(1.,1.83697019872103E-16,0.));
#343=DIRECTION('ref_axis',(0.,0.,-1.));
#344=DIRECTION('center_axis',(1.,1.83697019872103E-16,0.));
#345=DIRECTION('ref_axis',(0.,0.,-1.));
#346=DIRECTION('center_axis',(1.,1.83697019872103E-16,0.));
#347=DIRECTION('ref_axis',(1.83697019872103E-16,-1.,1.83697019872103E-16));
#348=DIRECTION('center_axis',(-1.,-1.83697019872103E-16,0.));
#349=DIRECTION('ref_axis',(1.8239378261699E-16,-1.,1.83697019872103E-16));
#350=DIRECTION('center_axis',(1.,1.83697019872103E-16,0.));
#351=DIRECTION('ref_axis',(0.,0.,-1.));
#352=DIRECTION('center_axis',(-1.,-1.83697019872103E-16,0.));
#353=DIRECTION('ref_axis',(1.83697019872103E-16,-1.,1.83697019872103E-16));
#354=DIRECTION('center_axis',(1.,1.83697019872103E-16,0.));
#355=DIRECTION('ref_axis',(-1.90323947078598E-16,1.,0.));
#356=DIRECTION('center_axis',(1.,1.83697019872103E-16,0.));
#357=DIRECTION('ref_axis',(0.,0.,-1.));
#358=DIRECTION('center_axis',(1.,1.83697019872103E-16,0.));
#359=DIRECTION('ref_axis',(0.,0.,-1.));
#360=DIRECTION('center_axis',(1.,1.83697019872103E-16,0.));
#361=DIRECTION('ref_axis',(0.,0.,-1.));
#362=DIRECTION('center_axis',(1.,1.83697019872103E-16,0.));
#363=DIRECTION('ref_axis',(0.,0.,-1.));
#364=DIRECTION('center_axis',(1.,1.83697019872103E-16,0.));
#365=DIRECTION('ref_axis',(-1.90323947078598E-16,1.,0.));
#366=DIRECTION('center_axis',(1.,1.83697019872103E-16,0.));
#367=DIRECTION('ref_axis',(0.,0.,-1.));
#368=DIRECTION('center_axis',(-1.,-1.83697019872103E-16,0.));
#369=DIRECTION('ref_axis',(0.,0.,1.));
#370=CARTESIAN_POINT('',(0.,0.,0.));
#371=CARTESIAN_POINT('Origin',(0.,147.6,0.));
#372=CARTESIAN_POINT('',(-71.4,149.,8.7439781459121E-15));
#373=CARTESIAN_POINT('Origin',(0.,149.,0.));
#374=CARTESIAN_POINT('',(-70.,147.6,-8.57252759403147E-15));
#375=CARTESIAN_POINT('Origin',(0.,147.6,0.));
#376=CARTESIAN_POINT('Origin',(-70.,149.,0.));
#377=CARTESIAN_POINT('',(-79.6,149.,-9.74818852121293E-15));
#378=CARTESIAN_POINT('Origin',(0.,149.,0.));
#379=CARTESIAN_POINT('Origin',(0.,147.6,0.));
#380=CARTESIAN_POINT('',(-81.,147.6,9.91963907309356E-15));
#381=CARTESIAN_POINT('Origin',(0.,147.6,0.));
#382=CARTESIAN_POINT('Origin',(0.,74.5,0.));
#383=CARTESIAN_POINT('',(9.92261653578269E-30,-2.66453525910038E-14,-81.));
#384=CARTESIAN_POINT('',(9.92261653578269E-30,-2.66453525910038E-14,81.));
#385=CARTESIAN_POINT('Origin',(0.,2.66453525910038E-14,0.));
#386=CARTESIAN_POINT('Origin',(0.,2.66453525910038E-14,0.));
#387=CARTESIAN_POINT('Origin',(0.,149.,0.));
#388=CARTESIAN_POINT('',(-60.564015718907,73.,35.0998575495684));
#389=CARTESIAN_POINT('Origin',(0.,73.,0.));
#390=CARTESIAN_POINT('Origin',(-4.09791413645548E-15,73.,1.69176841847643E-15));
#391=CARTESIAN_POINT('',(-52.316345438108,72.9999999999981,-35.0998575495764));
#392=CARTESIAN_POINT('Origin',(0.,73.,0.));
#393=CARTESIAN_POINT('Origin',(1.77635683940025E-14,2.73708559609433E-14,
0.));
#394=CARTESIAN_POINT('',(-147.6,80.9999999999999,-2.47990976827339E-14));
#395=CARTESIAN_POINT('Origin',(-147.6,2.57175827820947E-16,0.));
#396=CARTESIAN_POINT('',(147.6,81.,-4.95981953654678E-15));
#397=CARTESIAN_POINT('Origin',(147.6,5.44845360940657E-14,0.));
#398=CARTESIAN_POINT('Origin',(0.,149.,0.));
#399=CARTESIAN_POINT('',(5.02794467137388E-30,0.,-63.));
#400=CARTESIAN_POINT('',(5.02794467137388E-30,0.,63.));
#401=CARTESIAN_POINT('Origin',(0.,5.32907051820075E-14,0.));
#402=CARTESIAN_POINT('Origin',(0.,5.32907051820075E-14,0.));
#403=CARTESIAN_POINT('Origin',(-147.6,2.57175827820946E-16,0.));
#404=CARTESIAN_POINT('',(-147.6,70.,-4.28626379701573E-15));
#405=CARTESIAN_POINT('Origin',(-147.6,2.57175827820946E-16,0.));
#406=CARTESIAN_POINT('',(-149.,71.4,-2.18599453647802E-14));
#407=CARTESIAN_POINT('Origin',(-149.,1.23259516440783E-31,0.));
#408=CARTESIAN_POINT('Origin',(-149.,81.,0.));
#409=CARTESIAN_POINT('',(-149.,79.6,-4.87409426060646E-15));
#410=CARTESIAN_POINT('Origin',(-149.,1.10933564796705E-30,0.));
#411=CARTESIAN_POINT('Origin',(-111.,6.98048675513992E-15,0.));
#412=CARTESIAN_POINT('',(-73.,70.,0.));
#413=CARTESIAN_POINT('Origin',(-73.,1.39609735102798E-14,0.));
#414=CARTESIAN_POINT('Origin',(-147.6,2.57175827820947E-16,0.));
#415=CARTESIAN_POINT('Origin',(147.6,5.44845360940657E-14,0.));
#416=CARTESIAN_POINT('',(149.,71.4,-4.37198907295605E-15));
#417=CARTESIAN_POINT('Origin',(149.,5.47417119218867E-14,0.));
#418=CARTESIAN_POINT('',(147.6,70.,-2.14313189850787E-14));
#419=CARTESIAN_POINT('Origin',(147.6,5.44845360940657E-14,0.));
#420=CARTESIAN_POINT('Origin',(149.,70.,0.));
#421=CARTESIAN_POINT('',(149.,79.6,-2.43704713030323E-14));
#422=CARTESIAN_POINT('Origin',(149.,5.47417119218867E-14,0.));
#423=CARTESIAN_POINT('Origin',(111.,4.77612251667468E-14,0.));
#424=CARTESIAN_POINT('',(73.,70.,0.));
#425=CARTESIAN_POINT('Origin',(73.,4.07807384116069E-14,0.));
#426=CARTESIAN_POINT('Origin',(147.6,5.44845360940657E-14,0.));
#427=CARTESIAN_POINT('Origin',(73.,63.,0.));
#428=CARTESIAN_POINT('',(73.,63.,0.));
#429=CARTESIAN_POINT('Origin',(73.,4.07807384116069E-14,0.));
#430=CARTESIAN_POINT('Origin',(1.77635683940025E-14,2.73708559609433E-14,
0.));
#431=CARTESIAN_POINT('',(-73.,63.,0.));
#432=CARTESIAN_POINT('Origin',(-73.,1.39609735102798E-14,0.));
#433=CARTESIAN_POINT('Origin',(-73.,70.,0.));
#434=UNCERTAINTY_MEASURE_WITH_UNIT(LENGTH_MEASURE(0.01),#438,
'DISTANCE_ACCURACY_VALUE',
'Maximum model space distance between geometric entities at asserted c
onnectivities');
#435=UNCERTAINTY_MEASURE_WITH_UNIT(LENGTH_MEASURE(1.E-6),#438,
'DISTANCE_ACCURACY_VALUE',
'Maximum model space distance between geometric entities at asserted c
onnectivities');
#436=(
GEOMETRIC_REPRESENTATION_CONTEXT(3)
GLOBAL_UNCERTAINTY_ASSIGNED_CONTEXT((#434))
GLOBAL_UNIT_ASSIGNED_CONTEXT((#438,#441,#439))
REPRESENTATION_CONTEXT('','3D')
);
#437=(
GEOMETRIC_REPRESENTATION_CONTEXT(3)
GLOBAL_UNCERTAINTY_ASSIGNED_CONTEXT((#435))
GLOBAL_UNIT_ASSIGNED_CONTEXT((#438,#441,#439))
REPRESENTATION_CONTEXT('','3D')
);
#438=(
LENGTH_UNIT()
NAMED_UNIT(*)
SI_UNIT(.MILLI.,.METRE.)
);
#439=(
NAMED_UNIT(*)
SI_UNIT($,.STERADIAN.)
SOLID_ANGLE_UNIT()
);
#440=DIMENSIONAL_EXPONENTS(0.,0.,0.,0.,0.,0.,0.);
#441=(
CONVERSION_BASED_UNIT('degree',#443)
NAMED_UNIT(#440)
PLANE_ANGLE_UNIT()
);
#442=(
NAMED_UNIT(*)
PLANE_ANGLE_UNIT()
SI_UNIT($,.RADIAN.)
);
#443=PLANE_ANGLE_MEASURE_WITH_UNIT(PLANE_ANGLE_MEASURE(0.01745329252),#442);
#444=SHAPE_DEFINITION_REPRESENTATION(#445,#446);
#445=PRODUCT_DEFINITION_SHAPE('',$,#448);
#446=SHAPE_REPRESENTATION('',(#244),#436);
#447=PRODUCT_DEFINITION_CONTEXT('part definition',#452,'design');
#448=PRODUCT_DEFINITION('050400140','050400140',#449,#447);
#449=PRODUCT_DEFINITION_FORMATION('',$,#454);
#450=PRODUCT_RELATED_PRODUCT_CATEGORY('050400140','050400140',(#454));
#451=APPLICATION_PROTOCOL_DEFINITION('international standard',
'automotive_design',2009,#452);
#452=APPLICATION_CONTEXT(
'Core Data for Automotive Mechanical Design Process');
#453=PRODUCT_CONTEXT('part definition',#452,'mechanical');
#454=PRODUCT('050400140','050400140',$,(#453));
#455=PRESENTATION_STYLE_ASSIGNMENT((#456));
#456=SURFACE_STYLE_USAGE(.BOTH.,#457);
#457=SURFACE_SIDE_STYLE($,(#458));
#458=SURFACE_STYLE_FILL_AREA(#459);
#459=FILL_AREA_STYLE($,(#460));
#460=FILL_AREA_STYLE_COLOUR($,#461);
#461=COLOUR_RGB('',0.749019607843137,0.749019607843137,0.749019607843137);
ENDSEC;
END-ISO-10303-21;
