ISO-10303-21;
HEADER;
/* Generated by software containing ST-Developer
 * from STEP Tools, Inc. (www.steptools.com) 
 */

FILE_DESCRIPTION(
/* description */ ('90\X\B0 THREADED ELBOW MALE-FEMALE 1"-1"'),
/* implementation_level */ '2;1');

FILE_NAME(
/* name */ 
'C:\\Dropbox\\KIMPROJECTS-Inventor\\99-16-3568-Processing\\Mechanical 
Fittings\\Bulk 08.06.17\\051507\\051507007_0515070070A.ipt.stp',
/* time_stamp */ '2017-06-18T09:22:42+03:00',
/* author */ ('KIM'),
/* organization */ (''),
/* preprocessor_version */ 'ST-DEVELOPER v15.6',
/* originating_system */ 'Autodesk Inventor 2015',
/* authorisation */ '');

FILE_SCHEMA (('AUTOMOTIVE_DESIGN { 1 0 10303 214 3 1 1 }'));
ENDSEC;

DATA;
#10=MECHANICAL_DESIGN_GEOMETRIC_PRESENTATION_REPRESENTATION('',(#13),#462);
#11=SHAPE_REPRESENTATION_RELATIONSHIP('SRR','None',#471,#12);
#12=ADVANCED_BREP_SHAPE_REPRESENTATION($,(#14),#461);
#13=STYLED_ITEM('',(#480),#14);
#14=MANIFOLD_SOLID_BREP('Solid1',#243);
#15=PLANE('',#255);
#16=PLANE('',#257);
#17=PLANE('',#261);
#18=PLANE('',#270);
#19=CYLINDRICAL_SURFACE('',#253,13.2205);
#20=CYLINDRICAL_SURFACE('',#259,14.54255);
#21=CYLINDRICAL_SURFACE('',#263,13.3246425);
#22=CYLINDRICAL_SURFACE('',#264,9.915375);
#23=CYLINDRICAL_SURFACE('',#268,15.67605);
#24=CYLINDRICAL_SURFACE('',#272,12.0585);
#25=CYLINDRICAL_SURFACE('',#276,9.915375);
#26=CYLINDRICAL_SURFACE('',#277,13.3246425);
#27=CYLINDRICAL_SURFACE('',#281,15.67605);
#28=CONICAL_SURFACE('',#250,12.95609,45.0000000000001);
#29=CONICAL_SURFACE('',#265,15.41164,45.0000000000001);
#30=CONICAL_SURFACE('',#274,10.9869375,60.0000000000001);
#31=CONICAL_SURFACE('',#279,14.50034625,60.0000000000001);
#32=CONICAL_SURFACE('',#283,15.42605,63.4349488229216);
#33=CONICAL_SURFACE('',#285,15.42605,63.4349488229221);
#34=(
BOUNDED_SURFACE()
B_SPLINE_SURFACE(2,2,((#376,#377,#378),(#379,#380,#381),(#382,#383,#384),
(#385,#386,#387),(#388,#389,#390),(#391,#392,#393),(#394,#395,#396),(#397,
#398,#399),(#400,#401,#402)),.UNSPECIFIED.,.T.,.F.,.F.)
B_SPLINE_SURFACE_WITH_KNOTS((3,2,2,2,3),(3,3),(-3.14159265358979,-1.5707963267949,
0.,1.5707963267949,3.14159265358979),(-3.14159265358979,-1.5707963267949),
 .UNSPECIFIED.)
GEOMETRIC_REPRESENTATION_ITEM()
RATIONAL_B_SPLINE_SURFACE(((1.,0.707106781186548,1.),(0.707106781186548,
0.5,0.707106781186548),(1.,0.707106781186548,1.),(0.707106781186547,0.5,
0.707106781186547),(1.,0.707106781186548,1.),(0.707106781186547,0.5,0.707106781186547),
(1.,0.707106781186548,1.),(0.707106781186548,0.5,0.707106781186548),(1.,
0.707106781186548,1.)))
REPRESENTATION_ITEM('')
SURFACE()
);
#35=FACE_BOUND('',#77,.T.);
#36=FACE_BOUND('',#80,.T.);
#37=FACE_BOUND('',#82,.T.);
#38=FACE_BOUND('',#84,.T.);
#39=FACE_BOUND('',#86,.T.);
#40=FACE_BOUND('',#88,.T.);
#41=FACE_BOUND('',#90,.T.);
#42=FACE_BOUND('',#92,.T.);
#43=FACE_BOUND('',#94,.T.);
#44=FACE_BOUND('',#96,.T.);
#45=FACE_BOUND('',#98,.T.);
#46=FACE_BOUND('',#100,.T.);
#47=FACE_BOUND('',#102,.T.);
#48=FACE_BOUND('',#104,.T.);
#49=FACE_BOUND('',#106,.T.);
#50=FACE_BOUND('',#108,.T.);
#51=FACE_BOUND('',#110,.T.);
#52=FACE_BOUND('',#112,.T.);
#53=FACE_BOUND('',#114,.T.);
#54=FACE_BOUND('',#116,.T.);
#55=FACE_OUTER_BOUND('',#76,.T.);
#56=FACE_OUTER_BOUND('',#78,.T.);
#57=FACE_OUTER_BOUND('',#79,.T.);
#58=FACE_OUTER_BOUND('',#81,.T.);
#59=FACE_OUTER_BOUND('',#83,.T.);
#60=FACE_OUTER_BOUND('',#85,.T.);
#61=FACE_OUTER_BOUND('',#87,.T.);
#62=FACE_OUTER_BOUND('',#89,.T.);
#63=FACE_OUTER_BOUND('',#91,.T.);
#64=FACE_OUTER_BOUND('',#93,.T.);
#65=FACE_OUTER_BOUND('',#95,.T.);
#66=FACE_OUTER_BOUND('',#97,.T.);
#67=FACE_OUTER_BOUND('',#99,.T.);
#68=FACE_OUTER_BOUND('',#101,.T.);
#69=FACE_OUTER_BOUND('',#103,.T.);
#70=FACE_OUTER_BOUND('',#105,.T.);
#71=FACE_OUTER_BOUND('',#107,.T.);
#72=FACE_OUTER_BOUND('',#109,.T.);
#73=FACE_OUTER_BOUND('',#111,.T.);
#74=FACE_OUTER_BOUND('',#113,.T.);
#75=FACE_OUTER_BOUND('',#115,.T.);
#76=EDGE_LOOP('',(#179));
#77=EDGE_LOOP('',(#180));
#78=EDGE_LOOP('',(#181,#182));
#79=EDGE_LOOP('',(#183));
#80=EDGE_LOOP('',(#184));
#81=EDGE_LOOP('',(#185));
#82=EDGE_LOOP('',(#186));
#83=EDGE_LOOP('',(#187));
#84=EDGE_LOOP('',(#188));
#85=EDGE_LOOP('',(#189));
#86=EDGE_LOOP('',(#190));
#87=EDGE_LOOP('',(#191));
#88=EDGE_LOOP('',(#192));
#89=EDGE_LOOP('',(#193));
#90=EDGE_LOOP('',(#194));
#91=EDGE_LOOP('',(#195));
#92=EDGE_LOOP('',(#196));
#93=EDGE_LOOP('',(#197));
#94=EDGE_LOOP('',(#198));
#95=EDGE_LOOP('',(#199));
#96=EDGE_LOOP('',(#200));
#97=EDGE_LOOP('',(#201));
#98=EDGE_LOOP('',(#202));
#99=EDGE_LOOP('',(#203));
#100=EDGE_LOOP('',(#204));
#101=EDGE_LOOP('',(#205));
#102=EDGE_LOOP('',(#206));
#103=EDGE_LOOP('',(#207));
#104=EDGE_LOOP('',(#208));
#105=EDGE_LOOP('',(#209));
#106=EDGE_LOOP('',(#210));
#107=EDGE_LOOP('',(#211));
#108=EDGE_LOOP('',(#212));
#109=EDGE_LOOP('',(#213));
#110=EDGE_LOOP('',(#214));
#111=EDGE_LOOP('',(#215));
#112=EDGE_LOOP('',(#216));
#113=EDGE_LOOP('',(#217));
#114=EDGE_LOOP('',(#218));
#115=EDGE_LOOP('',(#219));
#116=EDGE_LOOP('',(#220));
#117=CIRCLE('',#246,9.915375);
#118=CIRCLE('',#247,9.915375);
#119=CIRCLE('',#248,13.3246425);
#120=CIRCLE('',#249,13.3246425);
#121=CIRCLE('',#251,12.69168);
#122=CIRCLE('',#252,13.2205);
#123=CIRCLE('',#254,13.2205);
#124=CIRCLE('',#256,9.91537499999999);
#125=CIRCLE('',#258,14.54255);
#126=CIRCLE('',#260,14.54255);
#127=CIRCLE('',#262,13.3246425);
#128=CIRCLE('',#266,15.67605);
#129=CIRCLE('',#267,15.14723);
#130=CIRCLE('',#269,15.67605);
#131=CIRCLE('',#271,12.0585);
#132=CIRCLE('',#273,12.0585);
#133=CIRCLE('',#275,9.915375);
#134=CIRCLE('',#278,13.3246425);
#135=CIRCLE('',#280,15.67605);
#136=CIRCLE('',#282,15.67605);
#137=CIRCLE('',#284,15.17605);
#138=VERTEX_POINT('',#372);
#139=VERTEX_POINT('',#374);
#140=VERTEX_POINT('',#403);
#141=VERTEX_POINT('',#407);
#142=VERTEX_POINT('',#409);
#143=VERTEX_POINT('',#412);
#144=VERTEX_POINT('',#415);
#145=VERTEX_POINT('',#418);
#146=VERTEX_POINT('',#421);
#147=VERTEX_POINT('',#424);
#148=VERTEX_POINT('',#429);
#149=VERTEX_POINT('',#431);
#150=VERTEX_POINT('',#434);
#151=VERTEX_POINT('',#437);
#152=VERTEX_POINT('',#440);
#153=VERTEX_POINT('',#443);
#154=VERTEX_POINT('',#447);
#155=VERTEX_POINT('',#450);
#156=VERTEX_POINT('',#453);
#157=VERTEX_POINT('',#456);
#158=EDGE_CURVE('',#138,#138,#117,.T.);
#159=EDGE_CURVE('',#139,#139,#118,.T.);
#160=EDGE_CURVE('',#140,#140,#119,.T.);
#161=EDGE_CURVE('',#140,#140,#120,.T.);
#162=EDGE_CURVE('',#141,#141,#121,.T.);
#163=EDGE_CURVE('',#142,#142,#122,.T.);
#164=EDGE_CURVE('',#143,#143,#123,.T.);
#165=EDGE_CURVE('',#144,#144,#124,.T.);
#166=EDGE_CURVE('',#145,#145,#125,.T.);
#167=EDGE_CURVE('',#146,#146,#126,.T.);
#168=EDGE_CURVE('',#147,#147,#127,.T.);
#169=EDGE_CURVE('',#148,#148,#128,.T.);
#170=EDGE_CURVE('',#149,#149,#129,.T.);
#171=EDGE_CURVE('',#150,#150,#130,.T.);
#172=EDGE_CURVE('',#151,#151,#131,.T.);
#173=EDGE_CURVE('',#152,#152,#132,.T.);
#174=EDGE_CURVE('',#153,#153,#133,.T.);
#175=EDGE_CURVE('',#154,#154,#134,.T.);
#176=EDGE_CURVE('',#155,#155,#135,.T.);
#177=EDGE_CURVE('',#156,#156,#136,.T.);
#178=EDGE_CURVE('',#157,#157,#137,.T.);
#179=ORIENTED_EDGE('',*,*,#158,.T.);
#180=ORIENTED_EDGE('',*,*,#159,.F.);
#181=ORIENTED_EDGE('',*,*,#160,.T.);
#182=ORIENTED_EDGE('',*,*,#161,.F.);
#183=ORIENTED_EDGE('',*,*,#162,.T.);
#184=ORIENTED_EDGE('',*,*,#163,.T.);
#185=ORIENTED_EDGE('',*,*,#164,.F.);
#186=ORIENTED_EDGE('',*,*,#163,.F.);
#187=ORIENTED_EDGE('',*,*,#162,.F.);
#188=ORIENTED_EDGE('',*,*,#165,.T.);
#189=ORIENTED_EDGE('',*,*,#166,.F.);
#190=ORIENTED_EDGE('',*,*,#164,.T.);
#191=ORIENTED_EDGE('',*,*,#166,.T.);
#192=ORIENTED_EDGE('',*,*,#167,.F.);
#193=ORIENTED_EDGE('',*,*,#167,.T.);
#194=ORIENTED_EDGE('',*,*,#168,.F.);
#195=ORIENTED_EDGE('',*,*,#160,.F.);
#196=ORIENTED_EDGE('',*,*,#168,.T.);
#197=ORIENTED_EDGE('',*,*,#159,.T.);
#198=ORIENTED_EDGE('',*,*,#165,.F.);
#199=ORIENTED_EDGE('',*,*,#169,.T.);
#200=ORIENTED_EDGE('',*,*,#170,.T.);
#201=ORIENTED_EDGE('',*,*,#171,.T.);
#202=ORIENTED_EDGE('',*,*,#169,.F.);
#203=ORIENTED_EDGE('',*,*,#170,.F.);
#204=ORIENTED_EDGE('',*,*,#172,.F.);
#205=ORIENTED_EDGE('',*,*,#172,.T.);
#206=ORIENTED_EDGE('',*,*,#173,.F.);
#207=ORIENTED_EDGE('',*,*,#173,.T.);
#208=ORIENTED_EDGE('',*,*,#174,.F.);
#209=ORIENTED_EDGE('',*,*,#158,.F.);
#210=ORIENTED_EDGE('',*,*,#174,.T.);
#211=ORIENTED_EDGE('',*,*,#161,.T.);
#212=ORIENTED_EDGE('',*,*,#175,.F.);
#213=ORIENTED_EDGE('',*,*,#175,.T.);
#214=ORIENTED_EDGE('',*,*,#176,.F.);
#215=ORIENTED_EDGE('',*,*,#176,.T.);
#216=ORIENTED_EDGE('',*,*,#177,.F.);
#217=ORIENTED_EDGE('',*,*,#177,.T.);
#218=ORIENTED_EDGE('',*,*,#178,.F.);
#219=ORIENTED_EDGE('',*,*,#178,.T.);
#220=ORIENTED_EDGE('',*,*,#171,.F.);
#221=TOROIDAL_SURFACE('',#245,13.3246425,9.915375);
#222=ADVANCED_FACE('',(#55,#35),#221,.F.);
#223=ADVANCED_FACE('',(#56),#34,.F.);
#224=ADVANCED_FACE('',(#57,#36),#28,.T.);
#225=ADVANCED_FACE('',(#58,#37),#19,.T.);
#226=ADVANCED_FACE('',(#59,#38),#15,.T.);
#227=ADVANCED_FACE('',(#60,#39),#16,.T.);
#228=ADVANCED_FACE('',(#61,#40),#20,.T.);
#229=ADVANCED_FACE('',(#62,#41),#17,.T.);
#230=ADVANCED_FACE('',(#63,#42),#21,.T.);
#231=ADVANCED_FACE('',(#64,#43),#22,.F.);
#232=ADVANCED_FACE('',(#65,#44),#29,.T.);
#233=ADVANCED_FACE('',(#66,#45),#23,.T.);
#234=ADVANCED_FACE('',(#67,#46),#18,.T.);
#235=ADVANCED_FACE('',(#68,#47),#24,.F.);
#236=ADVANCED_FACE('',(#69,#48),#30,.F.);
#237=ADVANCED_FACE('',(#70,#49),#25,.F.);
#238=ADVANCED_FACE('',(#71,#50),#26,.T.);
#239=ADVANCED_FACE('',(#72,#51),#31,.T.);
#240=ADVANCED_FACE('',(#73,#52),#27,.T.);
#241=ADVANCED_FACE('',(#74,#53),#32,.T.);
#242=ADVANCED_FACE('',(#75,#54),#33,.T.);
#243=CLOSED_SHELL('',(#222,#223,#224,#225,#226,#227,#228,#229,#230,#231,
#232,#233,#234,#235,#236,#237,#238,#239,#240,#241,#242));
#244=AXIS2_PLACEMENT_3D('placement',#370,#286,#287);
#245=AXIS2_PLACEMENT_3D('',#371,#288,#289);
#246=AXIS2_PLACEMENT_3D('',#373,#290,#291);
#247=AXIS2_PLACEMENT_3D('',#375,#292,#293);
#248=AXIS2_PLACEMENT_3D('',#404,#294,#295);
#249=AXIS2_PLACEMENT_3D('',#405,#296,#297);
#250=AXIS2_PLACEMENT_3D('',#406,#298,#299);
#251=AXIS2_PLACEMENT_3D('',#408,#300,#301);
#252=AXIS2_PLACEMENT_3D('',#410,#302,#303);
#253=AXIS2_PLACEMENT_3D('',#411,#304,#305);
#254=AXIS2_PLACEMENT_3D('',#413,#306,#307);
#255=AXIS2_PLACEMENT_3D('',#414,#308,#309);
#256=AXIS2_PLACEMENT_3D('',#416,#310,#311);
#257=AXIS2_PLACEMENT_3D('',#417,#312,#313);
#258=AXIS2_PLACEMENT_3D('',#419,#314,#315);
#259=AXIS2_PLACEMENT_3D('',#420,#316,#317);
#260=AXIS2_PLACEMENT_3D('',#422,#318,#319);
#261=AXIS2_PLACEMENT_3D('',#423,#320,#321);
#262=AXIS2_PLACEMENT_3D('',#425,#322,#323);
#263=AXIS2_PLACEMENT_3D('',#426,#324,#325);
#264=AXIS2_PLACEMENT_3D('',#427,#326,#327);
#265=AXIS2_PLACEMENT_3D('',#428,#328,#329);
#266=AXIS2_PLACEMENT_3D('',#430,#330,#331);
#267=AXIS2_PLACEMENT_3D('',#432,#332,#333);
#268=AXIS2_PLACEMENT_3D('',#433,#334,#335);
#269=AXIS2_PLACEMENT_3D('',#435,#336,#337);
#270=AXIS2_PLACEMENT_3D('',#436,#338,#339);
#271=AXIS2_PLACEMENT_3D('',#438,#340,#341);
#272=AXIS2_PLACEMENT_3D('',#439,#342,#343);
#273=AXIS2_PLACEMENT_3D('',#441,#344,#345);
#274=AXIS2_PLACEMENT_3D('',#442,#346,#347);
#275=AXIS2_PLACEMENT_3D('',#444,#348,#349);
#276=AXIS2_PLACEMENT_3D('',#445,#350,#351);
#277=AXIS2_PLACEMENT_3D('',#446,#352,#353);
#278=AXIS2_PLACEMENT_3D('',#448,#354,#355);
#279=AXIS2_PLACEMENT_3D('',#449,#356,#357);
#280=AXIS2_PLACEMENT_3D('',#451,#358,#359);
#281=AXIS2_PLACEMENT_3D('',#452,#360,#361);
#282=AXIS2_PLACEMENT_3D('',#454,#362,#363);
#283=AXIS2_PLACEMENT_3D('',#455,#364,#365);
#284=AXIS2_PLACEMENT_3D('',#457,#366,#367);
#285=AXIS2_PLACEMENT_3D('',#458,#368,#369);
#286=DIRECTION('axis',(0.,0.,1.));
#287=DIRECTION('refdir',(1.,0.,0.));
#288=DIRECTION('center_axis',(0.,0.,1.));
#289=DIRECTION('ref_axis',(1.,0.,0.));
#290=DIRECTION('center_axis',(1.,-6.12323399573677E-17,0.));
#291=DIRECTION('ref_axis',(-6.12323399573677E-17,-1.,0.));
#292=DIRECTION('center_axis',(0.,-1.,0.));
#293=DIRECTION('ref_axis',(-1.,0.,0.));
#294=DIRECTION('center_axis',(0.,-1.,0.));
#295=DIRECTION('ref_axis',(-1.,0.,0.));
#296=DIRECTION('center_axis',(1.,-6.12323399573677E-17,0.));
#297=DIRECTION('ref_axis',(-6.12323399573677E-17,-1.,0.));
#298=DIRECTION('center_axis',(0.,-1.,0.));
#299=DIRECTION('ref_axis',(-1.,0.,0.));
#300=DIRECTION('center_axis',(0.,-1.,0.));
#301=DIRECTION('ref_axis',(-1.,0.,0.));
#302=DIRECTION('center_axis',(0.,1.,0.));
#303=DIRECTION('ref_axis',(-1.,0.,0.));
#304=DIRECTION('center_axis',(0.,-1.,0.));
#305=DIRECTION('ref_axis',(1.,0.,0.));
#306=DIRECTION('center_axis',(0.,-1.,0.));
#307=DIRECTION('ref_axis',(1.,0.,0.));
#308=DIRECTION('center_axis',(0.,1.,0.));
#309=DIRECTION('ref_axis',(0.,0.,1.));
#310=DIRECTION('center_axis',(0.,-1.,0.));
#311=DIRECTION('ref_axis',(1.,0.,0.));
#312=DIRECTION('center_axis',(0.,1.,0.));
#313=DIRECTION('ref_axis',(0.,0.,1.));
#314=DIRECTION('center_axis',(0.,-1.,0.));
#315=DIRECTION('ref_axis',(1.,0.,0.));
#316=DIRECTION('center_axis',(0.,-1.,0.));
#317=DIRECTION('ref_axis',(1.,0.,0.));
#318=DIRECTION('center_axis',(0.,-1.,0.));
#319=DIRECTION('ref_axis',(1.,0.,0.));
#320=DIRECTION('center_axis',(0.,-1.,0.));
#321=DIRECTION('ref_axis',(0.,0.,-1.));
#322=DIRECTION('center_axis',(0.,-1.,0.));
#323=DIRECTION('ref_axis',(1.,0.,0.));
#324=DIRECTION('center_axis',(0.,-1.,0.));
#325=DIRECTION('ref_axis',(1.,0.,0.));
#326=DIRECTION('center_axis',(0.,-1.,0.));
#327=DIRECTION('ref_axis',(1.,0.,0.));
#328=DIRECTION('center_axis',(-1.,0.,0.));
#329=DIRECTION('ref_axis',(0.,-1.,0.));
#330=DIRECTION('center_axis',(1.,0.,0.));
#331=DIRECTION('ref_axis',(0.,-1.,0.));
#332=DIRECTION('center_axis',(-1.,0.,0.));
#333=DIRECTION('ref_axis',(0.,-1.,0.));
#334=DIRECTION('center_axis',(1.,0.,0.));
#335=DIRECTION('ref_axis',(0.,1.,0.));
#336=DIRECTION('center_axis',(1.,0.,0.));
#337=DIRECTION('ref_axis',(0.,0.,-1.));
#338=DIRECTION('center_axis',(1.,0.,0.));
#339=DIRECTION('ref_axis',(0.,0.,-1.));
#340=DIRECTION('center_axis',(1.,0.,0.));
#341=DIRECTION('ref_axis',(0.,0.,-1.));
#342=DIRECTION('center_axis',(1.,0.,0.));
#343=DIRECTION('ref_axis',(0.,1.,0.));
#344=DIRECTION('center_axis',(1.,0.,0.));
#345=DIRECTION('ref_axis',(0.,0.,-1.));
#346=DIRECTION('center_axis',(1.,0.,0.));
#347=DIRECTION('ref_axis',(0.,1.,0.));
#348=DIRECTION('center_axis',(1.,0.,0.));
#349=DIRECTION('ref_axis',(0.,0.,-1.));
#350=DIRECTION('center_axis',(1.,0.,0.));
#351=DIRECTION('ref_axis',(0.,1.,0.));
#352=DIRECTION('center_axis',(1.,0.,0.));
#353=DIRECTION('ref_axis',(0.,1.,0.));
#354=DIRECTION('center_axis',(1.,0.,0.));
#355=DIRECTION('ref_axis',(0.,0.,-1.));
#356=DIRECTION('center_axis',(1.,0.,0.));
#357=DIRECTION('ref_axis',(0.,1.,0.));
#358=DIRECTION('center_axis',(1.,0.,0.));
#359=DIRECTION('ref_axis',(0.,0.,-1.));
#360=DIRECTION('center_axis',(1.,0.,0.));
#361=DIRECTION('ref_axis',(0.,1.,0.));
#362=DIRECTION('center_axis',(1.,0.,0.));
#363=DIRECTION('ref_axis',(0.,0.,-1.));
#364=DIRECTION('center_axis',(-1.,0.,0.));
#365=DIRECTION('ref_axis',(0.,1.,0.));
#366=DIRECTION('center_axis',(1.,0.,0.));
#367=DIRECTION('ref_axis',(0.,0.,-1.));
#368=DIRECTION('center_axis',(1.,0.,0.));
#369=DIRECTION('ref_axis',(0.,1.,0.));
#370=CARTESIAN_POINT('',(0.,0.,0.));
#371=CARTESIAN_POINT('Origin',(13.3246425,13.3246425,0.));
#372=CARTESIAN_POINT('',(13.3246425,9.915375,1.21428322560957E-15));
#373=CARTESIAN_POINT('Origin',(13.3246425,0.,0.));
#374=CARTESIAN_POINT('',(9.915375,13.3246425,1.21428322560957E-15));
#375=CARTESIAN_POINT('Origin',(0.,13.3246425,0.));
#376=CARTESIAN_POINT('Ctrl Pts',(13.3246425,13.3246425,-1.63179807874078E-15));
#377=CARTESIAN_POINT('Ctrl Pts',(13.3246425,13.3246425,-1.63179807874078E-15));
#378=CARTESIAN_POINT('Ctrl Pts',(13.3246425,13.3246425,-1.63179807874078E-15));
#379=CARTESIAN_POINT('Ctrl Pts',(13.3246425,13.3246425,-13.3246425));
#380=CARTESIAN_POINT('Ctrl Pts',(13.3246425,13.3246425,-13.3246425));
#381=CARTESIAN_POINT('Ctrl Pts',(13.3246425,13.3246425,-13.3246425));
#382=CARTESIAN_POINT('Ctrl Pts',(0.,13.3246425,-13.3246425));
#383=CARTESIAN_POINT('Ctrl Pts',(2.22044604925031E-15,2.22044604925031E-15,
-13.3246425));
#384=CARTESIAN_POINT('Ctrl Pts',(13.3246425,0.,-13.3246425));
#385=CARTESIAN_POINT('Ctrl Pts',(-13.3246425,13.3246425,-13.3246425));
#386=CARTESIAN_POINT('Ctrl Pts',(-13.3246425,-13.3246425,-13.3246425));
#387=CARTESIAN_POINT('Ctrl Pts',(13.3246425,-13.3246425,-13.3246425));
#388=CARTESIAN_POINT('Ctrl Pts',(-13.3246425,13.3246425,0.));
#389=CARTESIAN_POINT('Ctrl Pts',(-13.3246425,-13.3246425,0.));
#390=CARTESIAN_POINT('Ctrl Pts',(13.3246425,-13.3246425,0.));
#391=CARTESIAN_POINT('Ctrl Pts',(-13.3246425,13.3246425,13.3246425));
#392=CARTESIAN_POINT('Ctrl Pts',(-13.3246425,-13.3246425,13.3246425));
#393=CARTESIAN_POINT('Ctrl Pts',(13.3246425,-13.3246425,13.3246425));
#394=CARTESIAN_POINT('Ctrl Pts',(0.,13.3246425,13.3246425));
#395=CARTESIAN_POINT('Ctrl Pts',(2.22044604925031E-15,2.22044604925031E-15,
13.3246425));
#396=CARTESIAN_POINT('Ctrl Pts',(13.3246425,0.,13.3246425));
#397=CARTESIAN_POINT('Ctrl Pts',(13.3246425,13.3246425,13.3246425));
#398=CARTESIAN_POINT('Ctrl Pts',(13.3246425,13.3246425,13.3246425));
#399=CARTESIAN_POINT('Ctrl Pts',(13.3246425,13.3246425,13.3246425));
#400=CARTESIAN_POINT('Ctrl Pts',(13.3246425,13.3246425,1.63179807874078E-15));
#401=CARTESIAN_POINT('Ctrl Pts',(13.3246425,13.3246425,1.63179807874078E-15));
#402=CARTESIAN_POINT('Ctrl Pts',(13.3246425,13.3246425,1.63179807874078E-15));
#403=CARTESIAN_POINT('',(13.3246425,13.3246425,1.63179807874078E-15));
#404=CARTESIAN_POINT('Origin',(0.,13.3246425,0.));
#405=CARTESIAN_POINT('Origin',(13.3246425,0.,0.));
#406=CARTESIAN_POINT('Origin',(0.,39.73559,0.));
#407=CARTESIAN_POINT('',(12.69168,40.,1.55428252878025E-15));
#408=CARTESIAN_POINT('Origin',(0.,40.,0.));
#409=CARTESIAN_POINT('',(13.2205,39.47118,-1.61904430081276E-15));
#410=CARTESIAN_POINT('Origin',(0.,39.47118,0.));
#411=CARTESIAN_POINT('Origin',(0.,31.5,0.));
#412=CARTESIAN_POINT('',(13.2205,23.,0.));
#413=CARTESIAN_POINT('Origin',(0.,23.,0.));
#414=CARTESIAN_POINT('Origin',(13.2205,40.,0.));
#415=CARTESIAN_POINT('',(9.91537499999999,40.,0.));
#416=CARTESIAN_POINT('Origin',(0.,40.,0.));
#417=CARTESIAN_POINT('Origin',(14.54255,23.,0.));
#418=CARTESIAN_POINT('',(14.54255,23.,0.));
#419=CARTESIAN_POINT('Origin',(0.,23.,0.));
#420=CARTESIAN_POINT('Origin',(0.,21.725,0.));
#421=CARTESIAN_POINT('',(14.54255,20.45,0.));
#422=CARTESIAN_POINT('Origin',(0.,20.45,0.));
#423=CARTESIAN_POINT('Origin',(13.3246425,20.45,0.));
#424=CARTESIAN_POINT('',(13.3246425,20.45,0.));
#425=CARTESIAN_POINT('Origin',(0.,20.45,0.));
#426=CARTESIAN_POINT('Origin',(0.,20.025,0.));
#427=CARTESIAN_POINT('Origin',(0.,29.8,0.));
#428=CARTESIAN_POINT('Origin',(39.73559,0.,0.));
#429=CARTESIAN_POINT('',(39.47118,15.67605,1.91976244557739E-15));
#430=CARTESIAN_POINT('Origin',(39.47118,0.,0.));
#431=CARTESIAN_POINT('',(40.,15.14723,-1.85500067354488E-15));
#432=CARTESIAN_POINT('Origin',(40.,0.,0.));
#433=CARTESIAN_POINT('Origin',(38.2,0.,0.));
#434=CARTESIAN_POINT('',(36.4,15.67605,0.));
#435=CARTESIAN_POINT('Origin',(36.4,0.,0.));
#436=CARTESIAN_POINT('Origin',(40.,12.0585,0.));
#437=CARTESIAN_POINT('',(40.,12.0585,0.));
#438=CARTESIAN_POINT('Origin',(40.,0.,0.));
#439=CARTESIAN_POINT('Origin',(31.,0.,0.));
#440=CARTESIAN_POINT('',(22.,12.0585,0.));
#441=CARTESIAN_POINT('Origin',(22.,0.,0.));
#442=CARTESIAN_POINT('Origin',(21.3813331021715,0.,0.));
#443=CARTESIAN_POINT('',(20.762666204343,9.915375,0.));
#444=CARTESIAN_POINT('Origin',(20.762666204343,0.,0.));
#445=CARTESIAN_POINT('Origin',(19.5813331021715,0.,0.));
#446=CARTESIAN_POINT('Origin',(19.1712071234502,0.,0.));
#447=CARTESIAN_POINT('',(19.9424142469005,13.3246425,0.));
#448=CARTESIAN_POINT('Origin',(19.9424142469005,0.,0.));
#449=CARTESIAN_POINT('Origin',(20.6212071234502,0.,0.));
#450=CARTESIAN_POINT('',(21.3,15.67605,0.));
#451=CARTESIAN_POINT('Origin',(21.3,0.,0.));
#452=CARTESIAN_POINT('Origin',(28.6,0.,0.));
#453=CARTESIAN_POINT('',(35.9,15.67605,0.));
#454=CARTESIAN_POINT('Origin',(35.9,0.,0.));
#455=CARTESIAN_POINT('Origin',(36.025,0.,0.));
#456=CARTESIAN_POINT('',(36.15,15.17605,0.));
#457=CARTESIAN_POINT('Origin',(36.15,0.,0.));
#458=CARTESIAN_POINT('Origin',(36.275,0.,0.));
#459=UNCERTAINTY_MEASURE_WITH_UNIT(LENGTH_MEASURE(0.01),#463,
'DISTANCE_ACCURACY_VALUE',
'Maximum model space distance between geometric entities at asserted c
onnectivities');
#460=UNCERTAINTY_MEASURE_WITH_UNIT(LENGTH_MEASURE(1.E-6),#463,
'DISTANCE_ACCURACY_VALUE',
'Maximum model space distance between geometric entities at asserted c
onnectivities');
#461=(
GEOMETRIC_REPRESENTATION_CONTEXT(3)
GLOBAL_UNCERTAINTY_ASSIGNED_CONTEXT((#459))
GLOBAL_UNIT_ASSIGNED_CONTEXT((#463,#466,#464))
REPRESENTATION_CONTEXT('','3D')
);
#462=(
GEOMETRIC_REPRESENTATION_CONTEXT(3)
GLOBAL_UNCERTAINTY_ASSIGNED_CONTEXT((#460))
GLOBAL_UNIT_ASSIGNED_CONTEXT((#463,#466,#464))
REPRESENTATION_CONTEXT('','3D')
);
#463=(
LENGTH_UNIT()
NAMED_UNIT(*)
SI_UNIT(.MILLI.,.METRE.)
);
#464=(
NAMED_UNIT(*)
SI_UNIT($,.STERADIAN.)
SOLID_ANGLE_UNIT()
);
#465=DIMENSIONAL_EXPONENTS(0.,0.,0.,0.,0.,0.,0.);
#466=(
CONVERSION_BASED_UNIT('degree',#468)
NAMED_UNIT(#465)
PLANE_ANGLE_UNIT()
);
#467=(
NAMED_UNIT(*)
PLANE_ANGLE_UNIT()
SI_UNIT($,.RADIAN.)
);
#468=PLANE_ANGLE_MEASURE_WITH_UNIT(PLANE_ANGLE_MEASURE(0.01745329252),#467);
#469=SHAPE_DEFINITION_REPRESENTATION(#470,#471);
#470=PRODUCT_DEFINITION_SHAPE('',$,#473);
#471=SHAPE_REPRESENTATION('',(#244),#461);
#472=PRODUCT_DEFINITION_CONTEXT('part definition',#477,'design');
#473=PRODUCT_DEFINITION('051507007_0515070070A','051507007_0515070070A',
#474,#472);
#474=PRODUCT_DEFINITION_FORMATION('',$,#479);
#475=PRODUCT_RELATED_PRODUCT_CATEGORY('051507007_0515070070A',
'051507007_0515070070A',(#479));
#476=APPLICATION_PROTOCOL_DEFINITION('international standard',
'automotive_design',2009,#477);
#477=APPLICATION_CONTEXT(
'Core Data for Automotive Mechanical Design Process');
#478=PRODUCT_CONTEXT('part definition',#477,'mechanical');
#479=PRODUCT('051507007_0515070070A','051507007_0515070070A',$,(#478));
#480=PRESENTATION_STYLE_ASSIGNMENT((#481));
#481=SURFACE_STYLE_USAGE(.BOTH.,#482);
#482=SURFACE_SIDE_STYLE($,(#483));
#483=SURFACE_STYLE_FILL_AREA(#484);
#484=FILL_AREA_STYLE($,(#485));
#485=FILL_AREA_STYLE_COLOUR($,#486);
#486=COLOUR_RGB('',0.749019607843137,0.749019607843137,0.749019607843137);
ENDSEC;
END-ISO-10303-21;
