ISO-10303-21;
HEADER;
/* Generated by software containing ST-Developer
 * from STEP Tools, Inc. (www.steptools.com) 
 */

FILE_DESCRIPTION(
/* description */ ('PLASSON THREADED REDUCING SOCKET 3/4"-1/2"'),
/* implementation_level */ '2;1');

FILE_NAME(
/* name */ 
'C:\\Dropbox\\KIMPROJECTS-Inventor\\99-16-3568-Processing\\Mechanical 
Fittings\\Bulk 08.06.17\\051107.stp',
/* time_stamp */ '2017-06-18T09:59:03+03:00',
/* author */ ('KIM'),
/* organization */ (''),
/* preprocessor_version */ 'ST-DEVELOPER v15.6',
/* originating_system */ 'Autodesk Inventor 2015',
/* authorisation */ '');

FILE_SCHEMA (('AUTOMOTIVE_DESIGN { 1 0 10303 214 3 1 1 }'));
ENDSEC;

DATA;
#10=MECHANICAL_DESIGN_GEOMETRIC_PRESENTATION_REPRESENTATION('',(#13),#511);
#11=SHAPE_REPRESENTATION_RELATIONSHIP('SRR','None',#520,#12);
#12=ADVANCED_BREP_SHAPE_REPRESENTATION($,(#14),#510);
#13=STYLED_ITEM('',(#529),#14);
#14=MANIFOLD_SOLID_BREP('Solid1',#301);
#15=LINE('',#454,#33);
#16=LINE('',#456,#34);
#17=LINE('',#458,#35);
#18=LINE('',#459,#36);
#19=LINE('',#462,#37);
#20=LINE('',#464,#38);
#21=LINE('',#465,#39);
#22=LINE('',#468,#40);
#23=LINE('',#470,#41);
#24=LINE('',#471,#42);
#25=LINE('',#475,#43);
#26=LINE('',#477,#44);
#27=LINE('',#479,#45);
#28=LINE('',#480,#46);
#29=LINE('',#482,#47);
#30=LINE('',#483,#48);
#31=LINE('',#485,#49);
#32=LINE('',#486,#50);
#33=VECTOR('',#370,20.7846096908265);
#34=VECTOR('',#371,9.11493528698145);
#35=VECTOR('',#372,20.7846096908265);
#36=VECTOR('',#373,9.11493528698145);
#37=VECTOR('',#376,20.7846096908265);
#38=VECTOR('',#377,9.11493528698146);
#39=VECTOR('',#378,20.7846096908265);
#40=VECTOR('',#381,20.7846096908265);
#41=VECTOR('',#382,9.11493528698146);
#42=VECTOR('',#383,20.7846096908265);
#43=VECTOR('',#386,20.7846096908265);
#44=VECTOR('',#387,9.11493528698146);
#45=VECTOR('',#388,20.7846096908265);
#46=VECTOR('',#389,9.11493528698146);
#47=VECTOR('',#392,20.7846096908265);
#48=VECTOR('',#393,20.7846096908265);
#49=VECTOR('',#396,20.7846096908265);
#50=VECTOR('',#397,20.7846096908265);
#51=PLANE('',#308);
#52=PLANE('',#313);
#53=PLANE('',#317);
#54=PLANE('',#318);
#55=PLANE('',#319);
#56=PLANE('',#320);
#57=PLANE('',#321);
#58=PLANE('',#322);
#59=PLANE('',#323);
#60=PLANE('',#324);
#61=PLANE('',#327);
#62=PLANE('',#335);
#63=CYLINDRICAL_SURFACE('',#306,15.1485130999404);
#64=CYLINDRICAL_SURFACE('',#315,17.1);
#65=CYLINDRICAL_SURFACE('',#325,9.31549999999999);
#66=CYLINDRICAL_SURFACE('',#329,7.4524);
#67=CYLINDRICAL_SURFACE('',#333,9.6468);
#68=CYLINDRICAL_SURFACE('',#337,12.0585);
#69=FACE_BOUND('',#106,.T.);
#70=FACE_BOUND('',#108,.T.);
#71=FACE_BOUND('',#110,.T.);
#72=FACE_BOUND('',#112,.T.);
#73=FACE_BOUND('',#114,.T.);
#74=FACE_BOUND('',#116,.T.);
#75=FACE_BOUND('',#124,.T.);
#76=FACE_BOUND('',#126,.T.);
#77=FACE_BOUND('',#128,.T.);
#78=FACE_BOUND('',#130,.T.);
#79=FACE_BOUND('',#132,.T.);
#80=FACE_BOUND('',#134,.T.);
#81=FACE_BOUND('',#136,.T.);
#82=FACE_BOUND('',#138,.T.);
#83=FACE_BOUND('',#140,.T.);
#84=FACE_OUTER_BOUND('',#105,.T.);
#85=FACE_OUTER_BOUND('',#107,.T.);
#86=FACE_OUTER_BOUND('',#109,.T.);
#87=FACE_OUTER_BOUND('',#111,.T.);
#88=FACE_OUTER_BOUND('',#113,.T.);
#89=FACE_OUTER_BOUND('',#115,.T.);
#90=FACE_OUTER_BOUND('',#117,.T.);
#91=FACE_OUTER_BOUND('',#118,.T.);
#92=FACE_OUTER_BOUND('',#119,.T.);
#93=FACE_OUTER_BOUND('',#120,.T.);
#94=FACE_OUTER_BOUND('',#121,.T.);
#95=FACE_OUTER_BOUND('',#122,.T.);
#96=FACE_OUTER_BOUND('',#123,.T.);
#97=FACE_OUTER_BOUND('',#125,.T.);
#98=FACE_OUTER_BOUND('',#127,.T.);
#99=FACE_OUTER_BOUND('',#129,.T.);
#100=FACE_OUTER_BOUND('',#131,.T.);
#101=FACE_OUTER_BOUND('',#133,.T.);
#102=FACE_OUTER_BOUND('',#135,.T.);
#103=FACE_OUTER_BOUND('',#137,.T.);
#104=FACE_OUTER_BOUND('',#139,.T.);
#105=EDGE_LOOP('',(#213));
#106=EDGE_LOOP('',(#214));
#107=EDGE_LOOP('',(#215));
#108=EDGE_LOOP('',(#216));
#109=EDGE_LOOP('',(#217));
#110=EDGE_LOOP('',(#218));
#111=EDGE_LOOP('',(#219));
#112=EDGE_LOOP('',(#220));
#113=EDGE_LOOP('',(#221));
#114=EDGE_LOOP('',(#222));
#115=EDGE_LOOP('',(#223));
#116=EDGE_LOOP('',(#224));
#117=EDGE_LOOP('',(#225,#226,#227,#228));
#118=EDGE_LOOP('',(#229,#230,#231,#232));
#119=EDGE_LOOP('',(#233,#234,#235,#236));
#120=EDGE_LOOP('',(#237,#238,#239,#240));
#121=EDGE_LOOP('',(#241,#242,#243,#244));
#122=EDGE_LOOP('',(#245,#246,#247,#248));
#123=EDGE_LOOP('',(#249,#250,#251,#252,#253,#254));
#124=EDGE_LOOP('',(#255));
#125=EDGE_LOOP('',(#256,#257,#258,#259,#260,#261));
#126=EDGE_LOOP('',(#262));
#127=EDGE_LOOP('',(#263));
#128=EDGE_LOOP('',(#264));
#129=EDGE_LOOP('',(#265));
#130=EDGE_LOOP('',(#266));
#131=EDGE_LOOP('',(#267));
#132=EDGE_LOOP('',(#268));
#133=EDGE_LOOP('',(#269));
#134=EDGE_LOOP('',(#270));
#135=EDGE_LOOP('',(#271));
#136=EDGE_LOOP('',(#272));
#137=EDGE_LOOP('',(#273));
#138=EDGE_LOOP('',(#274));
#139=EDGE_LOOP('',(#275));
#140=EDGE_LOOP('',(#276));
#141=CIRCLE('',#304,15.1485130999404);
#142=CIRCLE('',#305,14.4250030999404);
#143=CIRCLE('',#307,15.1485130999404);
#144=CIRCLE('',#309,9.31549999999999);
#145=CIRCLE('',#311,16.37649);
#146=CIRCLE('',#312,17.1);
#147=CIRCLE('',#314,12.0585);
#148=CIRCLE('',#316,17.1);
#149=CIRCLE('',#326,9.31549999999999);
#150=CIRCLE('',#328,7.45239999999999);
#151=CIRCLE('',#330,7.4524);
#152=CIRCLE('',#332,9.6468);
#153=CIRCLE('',#334,9.6468);
#154=CIRCLE('',#336,12.0585);
#155=VERTEX_POINT('',#430);
#156=VERTEX_POINT('',#432);
#157=VERTEX_POINT('',#435);
#158=VERTEX_POINT('',#438);
#159=VERTEX_POINT('',#441);
#160=VERTEX_POINT('',#443);
#161=VERTEX_POINT('',#446);
#162=VERTEX_POINT('',#449);
#163=VERTEX_POINT('',#452);
#164=VERTEX_POINT('',#453);
#165=VERTEX_POINT('',#455);
#166=VERTEX_POINT('',#457);
#167=VERTEX_POINT('',#461);
#168=VERTEX_POINT('',#463);
#169=VERTEX_POINT('',#467);
#170=VERTEX_POINT('',#469);
#171=VERTEX_POINT('',#473);
#172=VERTEX_POINT('',#474);
#173=VERTEX_POINT('',#476);
#174=VERTEX_POINT('',#478);
#175=VERTEX_POINT('',#490);
#176=VERTEX_POINT('',#493);
#177=VERTEX_POINT('',#496);
#178=VERTEX_POINT('',#499);
#179=VERTEX_POINT('',#502);
#180=VERTEX_POINT('',#505);
#181=EDGE_CURVE('',#155,#155,#141,.T.);
#182=EDGE_CURVE('',#156,#156,#142,.T.);
#183=EDGE_CURVE('',#157,#157,#143,.T.);
#184=EDGE_CURVE('',#158,#158,#144,.T.);
#185=EDGE_CURVE('',#159,#159,#145,.T.);
#186=EDGE_CURVE('',#160,#160,#146,.T.);
#187=EDGE_CURVE('',#161,#161,#147,.T.);
#188=EDGE_CURVE('',#162,#162,#148,.T.);
#189=EDGE_CURVE('',#163,#164,#15,.T.);
#190=EDGE_CURVE('',#165,#164,#16,.T.);
#191=EDGE_CURVE('',#165,#166,#17,.T.);
#192=EDGE_CURVE('',#166,#163,#18,.T.);
#193=EDGE_CURVE('',#164,#167,#19,.T.);
#194=EDGE_CURVE('',#168,#167,#20,.T.);
#195=EDGE_CURVE('',#168,#165,#21,.T.);
#196=EDGE_CURVE('',#167,#169,#22,.T.);
#197=EDGE_CURVE('',#170,#169,#23,.T.);
#198=EDGE_CURVE('',#170,#168,#24,.T.);
#199=EDGE_CURVE('',#171,#172,#25,.T.);
#200=EDGE_CURVE('',#173,#172,#26,.T.);
#201=EDGE_CURVE('',#173,#174,#27,.T.);
#202=EDGE_CURVE('',#174,#171,#28,.T.);
#203=EDGE_CURVE('',#172,#163,#29,.T.);
#204=EDGE_CURVE('',#166,#173,#30,.T.);
#205=EDGE_CURVE('',#169,#171,#31,.T.);
#206=EDGE_CURVE('',#174,#170,#32,.T.);
#207=EDGE_CURVE('',#175,#175,#149,.T.);
#208=EDGE_CURVE('',#176,#176,#150,.T.);
#209=EDGE_CURVE('',#177,#177,#151,.T.);
#210=EDGE_CURVE('',#178,#178,#152,.T.);
#211=EDGE_CURVE('',#179,#179,#153,.T.);
#212=EDGE_CURVE('',#180,#180,#154,.T.);
#213=ORIENTED_EDGE('',*,*,#181,.T.);
#214=ORIENTED_EDGE('',*,*,#182,.T.);
#215=ORIENTED_EDGE('',*,*,#183,.T.);
#216=ORIENTED_EDGE('',*,*,#181,.F.);
#217=ORIENTED_EDGE('',*,*,#182,.F.);
#218=ORIENTED_EDGE('',*,*,#184,.F.);
#219=ORIENTED_EDGE('',*,*,#185,.T.);
#220=ORIENTED_EDGE('',*,*,#186,.T.);
#221=ORIENTED_EDGE('',*,*,#185,.F.);
#222=ORIENTED_EDGE('',*,*,#187,.T.);
#223=ORIENTED_EDGE('',*,*,#188,.F.);
#224=ORIENTED_EDGE('',*,*,#186,.F.);
#225=ORIENTED_EDGE('',*,*,#189,.T.);
#226=ORIENTED_EDGE('',*,*,#190,.F.);
#227=ORIENTED_EDGE('',*,*,#191,.T.);
#228=ORIENTED_EDGE('',*,*,#192,.T.);
#229=ORIENTED_EDGE('',*,*,#193,.T.);
#230=ORIENTED_EDGE('',*,*,#194,.F.);
#231=ORIENTED_EDGE('',*,*,#195,.T.);
#232=ORIENTED_EDGE('',*,*,#190,.T.);
#233=ORIENTED_EDGE('',*,*,#196,.T.);
#234=ORIENTED_EDGE('',*,*,#197,.F.);
#235=ORIENTED_EDGE('',*,*,#198,.T.);
#236=ORIENTED_EDGE('',*,*,#194,.T.);
#237=ORIENTED_EDGE('',*,*,#199,.T.);
#238=ORIENTED_EDGE('',*,*,#200,.F.);
#239=ORIENTED_EDGE('',*,*,#201,.T.);
#240=ORIENTED_EDGE('',*,*,#202,.T.);
#241=ORIENTED_EDGE('',*,*,#203,.T.);
#242=ORIENTED_EDGE('',*,*,#192,.F.);
#243=ORIENTED_EDGE('',*,*,#204,.T.);
#244=ORIENTED_EDGE('',*,*,#200,.T.);
#245=ORIENTED_EDGE('',*,*,#205,.T.);
#246=ORIENTED_EDGE('',*,*,#202,.F.);
#247=ORIENTED_EDGE('',*,*,#206,.T.);
#248=ORIENTED_EDGE('',*,*,#197,.T.);
#249=ORIENTED_EDGE('',*,*,#205,.F.);
#250=ORIENTED_EDGE('',*,*,#196,.F.);
#251=ORIENTED_EDGE('',*,*,#193,.F.);
#252=ORIENTED_EDGE('',*,*,#189,.F.);
#253=ORIENTED_EDGE('',*,*,#203,.F.);
#254=ORIENTED_EDGE('',*,*,#199,.F.);
#255=ORIENTED_EDGE('',*,*,#188,.T.);
#256=ORIENTED_EDGE('',*,*,#204,.F.);
#257=ORIENTED_EDGE('',*,*,#191,.F.);
#258=ORIENTED_EDGE('',*,*,#195,.F.);
#259=ORIENTED_EDGE('',*,*,#198,.F.);
#260=ORIENTED_EDGE('',*,*,#206,.F.);
#261=ORIENTED_EDGE('',*,*,#201,.F.);
#262=ORIENTED_EDGE('',*,*,#183,.F.);
#263=ORIENTED_EDGE('',*,*,#184,.T.);
#264=ORIENTED_EDGE('',*,*,#207,.F.);
#265=ORIENTED_EDGE('',*,*,#207,.T.);
#266=ORIENTED_EDGE('',*,*,#208,.F.);
#267=ORIENTED_EDGE('',*,*,#208,.T.);
#268=ORIENTED_EDGE('',*,*,#209,.F.);
#269=ORIENTED_EDGE('',*,*,#209,.T.);
#270=ORIENTED_EDGE('',*,*,#210,.F.);
#271=ORIENTED_EDGE('',*,*,#210,.T.);
#272=ORIENTED_EDGE('',*,*,#211,.F.);
#273=ORIENTED_EDGE('',*,*,#212,.F.);
#274=ORIENTED_EDGE('',*,*,#211,.T.);
#275=ORIENTED_EDGE('',*,*,#212,.T.);
#276=ORIENTED_EDGE('',*,*,#187,.F.);
#277=CONICAL_SURFACE('',#303,14.7867580999404,44.9999999999999);
#278=CONICAL_SURFACE('',#310,16.738245,45.0000000000008);
#279=CONICAL_SURFACE('',#331,8.5496,30.8993703219375);
#280=ADVANCED_FACE('',(#84,#69),#277,.T.);
#281=ADVANCED_FACE('',(#85,#70),#63,.T.);
#282=ADVANCED_FACE('',(#86,#71),#51,.T.);
#283=ADVANCED_FACE('',(#87,#72),#278,.T.);
#284=ADVANCED_FACE('',(#88,#73),#52,.T.);
#285=ADVANCED_FACE('',(#89,#74),#64,.T.);
#286=ADVANCED_FACE('',(#90),#53,.T.);
#287=ADVANCED_FACE('',(#91),#54,.T.);
#288=ADVANCED_FACE('',(#92),#55,.T.);
#289=ADVANCED_FACE('',(#93),#56,.T.);
#290=ADVANCED_FACE('',(#94),#57,.T.);
#291=ADVANCED_FACE('',(#95),#58,.T.);
#292=ADVANCED_FACE('',(#96,#75),#59,.T.);
#293=ADVANCED_FACE('',(#97,#76),#60,.T.);
#294=ADVANCED_FACE('',(#98,#77),#65,.F.);
#295=ADVANCED_FACE('',(#99,#78),#61,.T.);
#296=ADVANCED_FACE('',(#100,#79),#66,.F.);
#297=ADVANCED_FACE('',(#101,#80),#279,.F.);
#298=ADVANCED_FACE('',(#102,#81),#67,.F.);
#299=ADVANCED_FACE('',(#103,#82),#62,.T.);
#300=ADVANCED_FACE('',(#104,#83),#68,.F.);
#301=CLOSED_SHELL('',(#280,#281,#282,#283,#284,#285,#286,#287,#288,#289,
#290,#291,#292,#293,#294,#295,#296,#297,#298,#299,#300));
#302=AXIS2_PLACEMENT_3D('placement',#428,#338,#339);
#303=AXIS2_PLACEMENT_3D('',#429,#340,#341);
#304=AXIS2_PLACEMENT_3D('',#431,#342,#343);
#305=AXIS2_PLACEMENT_3D('',#433,#344,#345);
#306=AXIS2_PLACEMENT_3D('',#434,#346,#347);
#307=AXIS2_PLACEMENT_3D('',#436,#348,#349);
#308=AXIS2_PLACEMENT_3D('',#437,#350,#351);
#309=AXIS2_PLACEMENT_3D('',#439,#352,#353);
#310=AXIS2_PLACEMENT_3D('',#440,#354,#355);
#311=AXIS2_PLACEMENT_3D('',#442,#356,#357);
#312=AXIS2_PLACEMENT_3D('',#444,#358,#359);
#313=AXIS2_PLACEMENT_3D('',#445,#360,#361);
#314=AXIS2_PLACEMENT_3D('',#447,#362,#363);
#315=AXIS2_PLACEMENT_3D('',#448,#364,#365);
#316=AXIS2_PLACEMENT_3D('',#450,#366,#367);
#317=AXIS2_PLACEMENT_3D('',#451,#368,#369);
#318=AXIS2_PLACEMENT_3D('',#460,#374,#375);
#319=AXIS2_PLACEMENT_3D('',#466,#379,#380);
#320=AXIS2_PLACEMENT_3D('',#472,#384,#385);
#321=AXIS2_PLACEMENT_3D('',#481,#390,#391);
#322=AXIS2_PLACEMENT_3D('',#484,#394,#395);
#323=AXIS2_PLACEMENT_3D('',#487,#398,#399);
#324=AXIS2_PLACEMENT_3D('',#488,#400,#401);
#325=AXIS2_PLACEMENT_3D('',#489,#402,#403);
#326=AXIS2_PLACEMENT_3D('',#491,#404,#405);
#327=AXIS2_PLACEMENT_3D('',#492,#406,#407);
#328=AXIS2_PLACEMENT_3D('',#494,#408,#409);
#329=AXIS2_PLACEMENT_3D('',#495,#410,#411);
#330=AXIS2_PLACEMENT_3D('',#497,#412,#413);
#331=AXIS2_PLACEMENT_3D('',#498,#414,#415);
#332=AXIS2_PLACEMENT_3D('',#500,#416,#417);
#333=AXIS2_PLACEMENT_3D('',#501,#418,#419);
#334=AXIS2_PLACEMENT_3D('',#503,#420,#421);
#335=AXIS2_PLACEMENT_3D('',#504,#422,#423);
#336=AXIS2_PLACEMENT_3D('',#506,#424,#425);
#337=AXIS2_PLACEMENT_3D('',#507,#426,#427);
#338=DIRECTION('axis',(0.,0.,1.));
#339=DIRECTION('refdir',(1.,0.,0.));
#340=DIRECTION('center_axis',(-1.,-1.83697019872102E-16,0.));
#341=DIRECTION('ref_axis',(1.83923667792388E-16,-1.,0.));
#342=DIRECTION('center_axis',(1.,1.83697019872103E-16,0.));
#343=DIRECTION('ref_axis',(1.84139490753436E-16,-1.,0.));
#344=DIRECTION('center_axis',(-1.,-1.83697019872103E-16,0.));
#345=DIRECTION('ref_axis',(1.83697019872103E-16,-1.,0.));
#346=DIRECTION('center_axis',(1.,1.83697019872103E-16,0.));
#347=DIRECTION('ref_axis',(-1.84139490753436E-16,1.,0.));
#348=DIRECTION('center_axis',(1.,1.83697019872103E-16,0.));
#349=DIRECTION('ref_axis',(0.,0.,-1.));
#350=DIRECTION('center_axis',(1.,1.83697019872103E-16,0.));
#351=DIRECTION('ref_axis',(0.,0.,-1.));
#352=DIRECTION('center_axis',(1.,1.83697019872103E-16,0.));
#353=DIRECTION('ref_axis',(0.,0.,-1.));
#354=DIRECTION('center_axis',(1.,1.83697019872103E-16,0.));
#355=DIRECTION('ref_axis',(1.83923036759501E-16,-1.,0.));
#356=DIRECTION('center_axis',(1.,1.83697019872103E-16,0.));
#357=DIRECTION('ref_axis',(1.83697019872103E-16,-1.,0.));
#358=DIRECTION('center_axis',(-1.,-1.83697019872103E-16,0.));
#359=DIRECTION('ref_axis',(1.84139490753436E-16,-1.,0.));
#360=DIRECTION('center_axis',(-1.,-1.83697019872103E-16,0.));
#361=DIRECTION('ref_axis',(0.,0.,1.));
#362=DIRECTION('center_axis',(1.,1.83697019872103E-16,0.));
#363=DIRECTION('ref_axis',(0.,0.,-1.));
#364=DIRECTION('center_axis',(1.,1.83697019872103E-16,0.));
#365=DIRECTION('ref_axis',(-1.84139490753436E-16,1.,0.));
#366=DIRECTION('center_axis',(1.,1.83697019872103E-16,0.));
#367=DIRECTION('ref_axis',(0.,0.,-1.));
#368=DIRECTION('center_axis',(1.62403497069379E-16,-1.,-3.20493781063927E-16));
#369=DIRECTION('ref_axis',(0.,-3.5527136788005E-16,1.));
#370=DIRECTION('',(-5.88737524689857E-32,3.20493781063927E-16,-1.));
#371=DIRECTION('',(-1.,-1.62403497069379E-16,0.));
#372=DIRECTION('',(5.88737524689857E-32,-3.20493781063927E-16,1.));
#373=DIRECTION('',(-1.,-1.62403497069379E-16,0.));
#374=DIRECTION('center_axis',(8.12017485346892E-17,-0.5,-0.866025403784439));
#375=DIRECTION('ref_axis',(1.77635683940025E-16,-0.866025403784439,0.5));
#376=DIRECTION('',(-1.59086285808736E-16,0.866025403784439,-0.5));
#377=DIRECTION('',(-1.,-1.62403497069379E-16,0.));
#378=DIRECTION('',(1.59086285808736E-16,-0.866025403784439,0.5));
#379=DIRECTION('center_axis',(-8.12017485346893E-17,0.5,-0.866025403784439));
#380=DIRECTION('ref_axis',(1.77635683940025E-16,-0.866025403784439,-0.5));
#381=DIRECTION('',(-1.59086285808736E-16,0.866025403784438,0.5));
#382=DIRECTION('',(-1.,-1.62403497069379E-16,0.));
#383=DIRECTION('',(1.59086285808736E-16,-0.866025403784438,-0.5));
#384=DIRECTION('center_axis',(-8.12017485346892E-17,0.499999999999999,0.866025403784439));
#385=DIRECTION('ref_axis',(-1.77635683940025E-16,0.866025403784439,-0.499999999999999));
#386=DIRECTION('',(1.59086285808736E-16,-0.866025403784439,0.499999999999999));
#387=DIRECTION('',(-1.,-1.62403497069379E-16,0.));
#388=DIRECTION('',(-1.59086285808736E-16,0.866025403784439,-0.499999999999999));
#389=DIRECTION('',(-1.,-1.62403497069379E-16,0.));
#390=DIRECTION('center_axis',(8.12017485346894E-17,-0.5,0.866025403784438));
#391=DIRECTION('ref_axis',(-1.77635683940025E-16,0.866025403784438,0.5));
#392=DIRECTION('',(1.59086285808736E-16,-0.866025403784438,-0.5));
#393=DIRECTION('',(-1.59086285808736E-16,0.866025403784438,0.5));
#394=DIRECTION('center_axis',(-1.62403497069379E-16,1.,8.54650082837139E-16));
#395=DIRECTION('ref_axis',(0.,7.105427357601E-16,-1.));
#396=DIRECTION('',(1.56996673250628E-31,-8.54650082837139E-16,1.));
#397=DIRECTION('',(-1.56996673250628E-31,8.54650082837139E-16,-1.));
#398=DIRECTION('center_axis',(-1.,-1.83697019872103E-16,0.));
#399=DIRECTION('ref_axis',(0.,0.,1.));
#400=DIRECTION('center_axis',(1.,1.83697019872103E-16,0.));
#401=DIRECTION('ref_axis',(0.,0.,-1.));
#402=DIRECTION('center_axis',(1.,1.83697019872103E-16,0.));
#403=DIRECTION('ref_axis',(-1.84139490753436E-16,1.,0.));
#404=DIRECTION('center_axis',(1.,1.83697019872103E-16,0.));
#405=DIRECTION('ref_axis',(0.,0.,-1.));
#406=DIRECTION('center_axis',(1.,1.83697019872103E-16,0.));
#407=DIRECTION('ref_axis',(0.,0.,-1.));
#408=DIRECTION('center_axis',(1.,1.83697019872103E-16,0.));
#409=DIRECTION('ref_axis',(0.,0.,-1.));
#410=DIRECTION('center_axis',(1.,1.83697019872103E-16,0.));
#411=DIRECTION('ref_axis',(-1.84139490753436E-16,1.,0.));
#412=DIRECTION('center_axis',(1.,1.83697019872103E-16,0.));
#413=DIRECTION('ref_axis',(0.,0.,-1.));
#414=DIRECTION('center_axis',(-1.,-1.83697019872103E-16,0.));
#415=DIRECTION('ref_axis',(-1.84139490753436E-16,1.,0.));
#416=DIRECTION('center_axis',(1.,1.83697019872103E-16,0.));
#417=DIRECTION('ref_axis',(0.,0.,-1.));
#418=DIRECTION('center_axis',(1.,1.83697019872103E-16,0.));
#419=DIRECTION('ref_axis',(-1.84139490753436E-16,1.,0.));
#420=DIRECTION('center_axis',(1.,1.83697019872103E-16,0.));
#421=DIRECTION('ref_axis',(0.,0.,-1.));
#422=DIRECTION('center_axis',(-1.,-1.83697019872103E-16,0.));
#423=DIRECTION('ref_axis',(0.,0.,1.));
#424=DIRECTION('center_axis',(1.,1.83697019872103E-16,0.));
#425=DIRECTION('ref_axis',(0.,0.,-1.));
#426=DIRECTION('center_axis',(1.,1.83697019872103E-16,0.));
#427=DIRECTION('ref_axis',(-1.84139490753436E-16,1.,0.));
#428=CARTESIAN_POINT('',(0.,0.,0.));
#429=CARTESIAN_POINT('Origin',(24.638245,9.11839767818132E-15,0.));
#430=CARTESIAN_POINT('',(24.27649,15.1485130999404,1.85515780796837E-15));
#431=CARTESIAN_POINT('Origin',(24.27649,9.05194436275748E-15,0.));
#432=CARTESIAN_POINT('',(25.,14.4250030999404,-1.76655338740326E-15));
#433=CARTESIAN_POINT('Origin',(25.,9.18485099360515E-15,0.));
#434=CARTESIAN_POINT('Origin',(18.0284366882411,7.90419558938535E-15,0.));
#435=CARTESIAN_POINT('',(11.0568733764822,15.1485130999404,0.));
#436=CARTESIAN_POINT('Origin',(11.0568733764822,6.62354018516555E-15,0.));
#437=CARTESIAN_POINT('Origin',(25.,9.3155,0.));
#438=CARTESIAN_POINT('',(25.,9.3155,0.));
#439=CARTESIAN_POINT('Origin',(25.,9.18485099360515E-15,0.));
#440=CARTESIAN_POINT('Origin',(-24.638245,6.64533154238335E-17,0.));
#441=CARTESIAN_POINT('',(-25.,16.37649,2.00554160597686E-15));
#442=CARTESIAN_POINT('Origin',(-25.,9.39853812860971E-31,0.));
#443=CARTESIAN_POINT('',(-24.27649,17.1,-2.09414602654197E-15));
#444=CARTESIAN_POINT('Origin',(-24.27649,1.32906630847666E-16,0.));
#445=CARTESIAN_POINT('Origin',(-25.,17.1,0.));
#446=CARTESIAN_POINT('',(-25.,12.0585,0.));
#447=CARTESIAN_POINT('Origin',(-25.,4.93038065763132E-31,0.));
#448=CARTESIAN_POINT('Origin',(-11.5290309552496,2.47457686830999E-15,0.));
#449=CARTESIAN_POINT('',(1.94193808950074,17.1,0.));
#450=CARTESIAN_POINT('Origin',(1.94193808950074,4.94915373661999E-15,0.));
#451=CARTESIAN_POINT('Origin',(11.0568733764822,-18.,-10.3923048454133));
#452=CARTESIAN_POINT('',(1.94193808950074,-18.,10.3923048454133));
#453=CARTESIAN_POINT('',(1.94193808950074,-18.,-10.3923048454133));
#454=CARTESIAN_POINT('',(1.94193808950074,-18.,-5.19615242270664));
#455=CARTESIAN_POINT('',(11.0568733764822,-18.,-10.3923048454133));
#456=CARTESIAN_POINT('',(11.0568733764822,-18.,-10.3923048454133));
#457=CARTESIAN_POINT('',(11.0568733764822,-18.,10.3923048454133));
#458=CARTESIAN_POINT('',(11.0568733764822,-18.,-10.3923048454133));
#459=CARTESIAN_POINT('',(11.0568733764822,-18.,10.3923048454133));
#460=CARTESIAN_POINT('Origin',(11.0568733764822,1.12386506324861E-14,-20.7846096908265));
#461=CARTESIAN_POINT('',(1.94193808950074,9.75835326631924E-15,-20.7846096908265));
#462=CARTESIAN_POINT('',(1.94193808950074,-4.49999999999999,-18.1865334794732));
#463=CARTESIAN_POINT('',(11.0568733764822,1.12386506324861E-14,-20.7846096908265));
#464=CARTESIAN_POINT('',(11.0568733764822,1.12386506324861E-14,-20.7846096908265));
#465=CARTESIAN_POINT('',(11.0568733764822,1.12386506324861E-14,-20.7846096908265));
#466=CARTESIAN_POINT('Origin',(11.0568733764822,18.,-10.3923048454133));
#467=CARTESIAN_POINT('',(1.94193808950074,18.,-10.3923048454133));
#468=CARTESIAN_POINT('',(1.94193808950074,13.5,-12.9903810567666));
#469=CARTESIAN_POINT('',(11.0568733764822,18.,-10.3923048454133));
#470=CARTESIAN_POINT('',(11.0568733764822,18.,-10.3923048454133));
#471=CARTESIAN_POINT('',(11.0568733764822,18.,-10.3923048454133));
#472=CARTESIAN_POINT('Origin',(11.0568733764822,-5.15206128241533E-15,20.7846096908265));
#473=CARTESIAN_POINT('',(1.94193808950074,18.,10.3923048454133));
#474=CARTESIAN_POINT('',(1.94193808950074,-6.6323586485822E-15,20.7846096908265));
#475=CARTESIAN_POINT('',(1.94193808950074,4.49999999999999,18.1865334794732));
#476=CARTESIAN_POINT('',(11.0568733764822,-5.15206128241533E-15,20.7846096908265));
#477=CARTESIAN_POINT('',(11.0568733764822,-5.15206128241533E-15,20.7846096908265));
#478=CARTESIAN_POINT('',(11.0568733764822,18.,10.3923048454133));
#479=CARTESIAN_POINT('',(11.0568733764822,-5.15206128241533E-15,20.7846096908265));
#480=CARTESIAN_POINT('',(11.0568733764822,18.,10.3923048454133));
#481=CARTESIAN_POINT('Origin',(11.0568733764822,-18.,10.3923048454133));
#482=CARTESIAN_POINT('',(1.94193808950074,-13.5,12.9903810567666));
#483=CARTESIAN_POINT('',(11.0568733764822,-18.,10.3923048454133));
#484=CARTESIAN_POINT('Origin',(11.0568733764822,18.,0.));
#485=CARTESIAN_POINT('',(1.94193808950074,18.,7.69185074553424E-15));
#486=CARTESIAN_POINT('',(11.0568733764822,18.,10.3923048454133));
#487=CARTESIAN_POINT('Origin',(1.94193808950074,18.,0.));
#488=CARTESIAN_POINT('Origin',(11.0568733764822,15.1485130999404,0.));
#489=CARTESIAN_POINT('Origin',(15.5,7.43972930482017E-15,0.));
#490=CARTESIAN_POINT('',(6.,9.31549999999999,0.));
#491=CARTESIAN_POINT('Origin',(6.,5.69460761603519E-15,0.));
#492=CARTESIAN_POINT('Origin',(6.,7.4524,0.));
#493=CARTESIAN_POINT('',(6.,7.4524,0.));
#494=CARTESIAN_POINT('Origin',(6.,5.69460761603519E-15,0.));
#495=CARTESIAN_POINT('Origin',(5.08333333333334,5.52621868115243E-15,0.));
#496=CARTESIAN_POINT('',(4.16666666666667,7.4524,0.));
#497=CARTESIAN_POINT('Origin',(4.16666666666667,5.35782974626967E-15,0.));
#498=CARTESIAN_POINT('Origin',(2.33333333333333,5.02105187650415E-15,0.));
#499=CARTESIAN_POINT('',(0.499999999999999,9.6468,0.));
#500=CARTESIAN_POINT('Origin',(0.5,4.68427400673863E-15,0.));
#501=CARTESIAN_POINT('Origin',(-2.25,4.17910720209034E-15,0.));
#502=CARTESIAN_POINT('',(-5.,9.6468,0.));
#503=CARTESIAN_POINT('Origin',(-5.,3.67394039744206E-15,0.));
#504=CARTESIAN_POINT('Origin',(-5.,12.0585,0.));
#505=CARTESIAN_POINT('',(-5.,12.0585,0.));
#506=CARTESIAN_POINT('Origin',(-5.,3.67394039744206E-15,0.));
#507=CARTESIAN_POINT('Origin',(-15.,1.83697019872103E-15,0.));
#508=UNCERTAINTY_MEASURE_WITH_UNIT(LENGTH_MEASURE(0.01),#512,
'DISTANCE_ACCURACY_VALUE',
'Maximum model space distance between geometric entities at asserted c
onnectivities');
#509=UNCERTAINTY_MEASURE_WITH_UNIT(LENGTH_MEASURE(1.E-6),#512,
'DISTANCE_ACCURACY_VALUE',
'Maximum model space distance between geometric entities at asserted c
onnectivities');
#510=(
GEOMETRIC_REPRESENTATION_CONTEXT(3)
GLOBAL_UNCERTAINTY_ASSIGNED_CONTEXT((#508))
GLOBAL_UNIT_ASSIGNED_CONTEXT((#512,#515,#513))
REPRESENTATION_CONTEXT('','3D')
);
#511=(
GEOMETRIC_REPRESENTATION_CONTEXT(3)
GLOBAL_UNCERTAINTY_ASSIGNED_CONTEXT((#509))
GLOBAL_UNIT_ASSIGNED_CONTEXT((#512,#515,#513))
REPRESENTATION_CONTEXT('','3D')
);
#512=(
LENGTH_UNIT()
NAMED_UNIT(*)
SI_UNIT(.MILLI.,.METRE.)
);
#513=(
NAMED_UNIT(*)
SI_UNIT($,.STERADIAN.)
SOLID_ANGLE_UNIT()
);
#514=DIMENSIONAL_EXPONENTS(0.,0.,0.,0.,0.,0.,0.);
#515=(
CONVERSION_BASED_UNIT('degree',#517)
NAMED_UNIT(#514)
PLANE_ANGLE_UNIT()
);
#516=(
NAMED_UNIT(*)
PLANE_ANGLE_UNIT()
SI_UNIT($,.RADIAN.)
);
#517=PLANE_ANGLE_MEASURE_WITH_UNIT(PLANE_ANGLE_MEASURE(0.01745329252),#516);
#518=SHAPE_DEFINITION_REPRESENTATION(#519,#520);
#519=PRODUCT_DEFINITION_SHAPE('',$,#522);
#520=SHAPE_REPRESENTATION('',(#302),#510);
#521=PRODUCT_DEFINITION_CONTEXT('part definition',#526,'design');
#522=PRODUCT_DEFINITION('051107','051107',#523,#521);
#523=PRODUCT_DEFINITION_FORMATION('',$,#528);
#524=PRODUCT_RELATED_PRODUCT_CATEGORY('051107','051107',(#528));
#525=APPLICATION_PROTOCOL_DEFINITION('international standard',
'automotive_design',2009,#526);
#526=APPLICATION_CONTEXT(
'Core Data for Automotive Mechanical Design Process');
#527=PRODUCT_CONTEXT('part definition',#526,'mechanical');
#528=PRODUCT('051107','051107',$,(#527));
#529=PRESENTATION_STYLE_ASSIGNMENT((#530));
#530=SURFACE_STYLE_USAGE(.BOTH.,#531);
#531=SURFACE_SIDE_STYLE($,(#532));
#532=SURFACE_STYLE_FILL_AREA(#533);
#533=FILL_AREA_STYLE($,(#534));
#534=FILL_AREA_STYLE_COLOUR($,#535);
#535=COLOUR_RGB('',0.749019607843137,0.749019607843137,0.749019607843137);
ENDSEC;
END-ISO-10303-21;
