ISO-10303-21;
HEADER;
/* Generated by software containing ST-Developer
 * from STEP Tools, Inc. (www.steptools.com) 
 */

FILE_DESCRIPTION(
/* description */ ('PLASSON NIPPLE 1.1/2"-1.1/2"'),
/* implementation_level */ '2;1');

FILE_NAME(
/* name */ 
'C:\\Dropbox\\KIMPROJECTS-Inventor\\99-16-3568-Processing\\Mechanical 
Fittings\\Bulk 08.06.17\\050607\\050607015_0506070150A.ipt.stp',
/* time_stamp */ '2017-06-18T09:22:18+03:00',
/* author */ ('KIM'),
/* organization */ (''),
/* preprocessor_version */ 'ST-DEVELOPER v15.6',
/* originating_system */ 'Autodesk Inventor 2015',
/* authorisation */ '');

FILE_SCHEMA (('AUTOMOTIVE_DESIGN { 1 0 10303 214 3 1 1 }'));
ENDSEC;

DATA;
#10=MECHANICAL_DESIGN_GEOMETRIC_PRESENTATION_REPRESENTATION('',(#13),#639);
#11=SHAPE_REPRESENTATION_RELATIONSHIP('SRR','None',#648,#12);
#12=ADVANCED_BREP_SHAPE_REPRESENTATION($,(#14),#638);
#13=STYLED_ITEM('',(#657),#14);
#14=MANIFOLD_SOLID_BREP('Solid1',#389);
#15=CYLINDRICAL_SURFACE('',#406,23.9015);
#16=CYLINDRICAL_SURFACE('',#415,23.9015);
#17=CYLINDRICAL_SURFACE('',#420,23.9015);
#18=CYLINDRICAL_SURFACE('',#424,19.1212);
#19=FACE_BOUND('',#80,.T.);
#20=FACE_BOUND('',#82,.T.);
#21=FACE_BOUND('',#84,.T.);
#22=FACE_BOUND('',#86,.T.);
#23=FACE_BOUND('',#88,.T.);
#24=FACE_BOUND('',#90,.T.);
#25=FACE_BOUND('',#92,.T.);
#26=FACE_BOUND('',#94,.T.);
#27=FACE_BOUND('',#96,.T.);
#28=FACE_BOUND('',#98,.T.);
#29=FACE_BOUND('',#100,.T.);
#30=FACE_BOUND('',#102,.T.);
#31=CIRCLE('',#404,23.9015);
#32=CIRCLE('',#405,23.2915);
#33=CIRCLE('',#407,23.9015);
#34=CIRCLE('',#409,19.1212);
#35=CIRCLE('',#411,23.2915);
#36=CIRCLE('',#412,23.9015);
#37=CIRCLE('',#414,19.1212);
#38=CIRCLE('',#416,23.9015);
#39=CIRCLE('',#419,23.9015);
#40=CIRCLE('',#421,23.9015);
#41=CONICAL_SURFACE('',#403,23.5965,45.);
#42=CONICAL_SURFACE('',#410,23.5965,45.);
#43=FACE_OUTER_BOUND('',#67,.T.);
#44=FACE_OUTER_BOUND('',#68,.T.);
#45=FACE_OUTER_BOUND('',#69,.T.);
#46=FACE_OUTER_BOUND('',#70,.T.);
#47=FACE_OUTER_BOUND('',#71,.T.);
#48=FACE_OUTER_BOUND('',#72,.T.);
#49=FACE_OUTER_BOUND('',#73,.T.);
#50=FACE_OUTER_BOUND('',#74,.T.);
#51=FACE_OUTER_BOUND('',#75,.T.);
#52=FACE_OUTER_BOUND('',#76,.T.);
#53=FACE_OUTER_BOUND('',#77,.T.);
#54=FACE_OUTER_BOUND('',#78,.T.);
#55=FACE_OUTER_BOUND('',#79,.T.);
#56=FACE_OUTER_BOUND('',#81,.T.);
#57=FACE_OUTER_BOUND('',#83,.T.);
#58=FACE_OUTER_BOUND('',#85,.T.);
#59=FACE_OUTER_BOUND('',#87,.T.);
#60=FACE_OUTER_BOUND('',#89,.T.);
#61=FACE_OUTER_BOUND('',#91,.T.);
#62=FACE_OUTER_BOUND('',#93,.T.);
#63=FACE_OUTER_BOUND('',#95,.T.);
#64=FACE_OUTER_BOUND('',#97,.T.);
#65=FACE_OUTER_BOUND('',#99,.T.);
#66=FACE_OUTER_BOUND('',#101,.T.);
#67=EDGE_LOOP('',(#255,#256,#257,#258));
#68=EDGE_LOOP('',(#259,#260,#261,#262));
#69=EDGE_LOOP('',(#263,#264,#265,#266));
#70=EDGE_LOOP('',(#267,#268,#269,#270));
#71=EDGE_LOOP('',(#271,#272,#273,#274));
#72=EDGE_LOOP('',(#275,#276,#277,#278));
#73=EDGE_LOOP('',(#279,#280,#281,#282));
#74=EDGE_LOOP('',(#283,#284,#285,#286));
#75=EDGE_LOOP('',(#287,#288,#289,#290));
#76=EDGE_LOOP('',(#291,#292,#293,#294));
#77=EDGE_LOOP('',(#295,#296,#297,#298));
#78=EDGE_LOOP('',(#299,#300,#301,#302));
#79=EDGE_LOOP('',(#303));
#80=EDGE_LOOP('',(#304));
#81=EDGE_LOOP('',(#305));
#82=EDGE_LOOP('',(#306));
#83=EDGE_LOOP('',(#307));
#84=EDGE_LOOP('',(#308));
#85=EDGE_LOOP('',(#309));
#86=EDGE_LOOP('',(#310));
#87=EDGE_LOOP('',(#311));
#88=EDGE_LOOP('',(#312));
#89=EDGE_LOOP('',(#313));
#90=EDGE_LOOP('',(#314));
#91=EDGE_LOOP('',(#315,#316,#317,#318,#319,#320));
#92=EDGE_LOOP('',(#321));
#93=EDGE_LOOP('',(#322,#323,#324,#325,#326,#327));
#94=EDGE_LOOP('',(#328));
#95=EDGE_LOOP('',(#329));
#96=EDGE_LOOP('',(#330));
#97=EDGE_LOOP('',(#331,#332,#333,#334,#335,#336));
#98=EDGE_LOOP('',(#337));
#99=EDGE_LOOP('',(#338,#339,#340,#341,#342,#343));
#100=EDGE_LOOP('',(#344));
#101=EDGE_LOOP('',(#345));
#102=EDGE_LOOP('',(#346));
#103=LINE('',#535,#139);
#104=LINE('',#537,#140);
#105=LINE('',#539,#141);
#106=LINE('',#540,#142);
#107=LINE('',#543,#143);
#108=LINE('',#545,#144);
#109=LINE('',#546,#145);
#110=LINE('',#549,#146);
#111=LINE('',#551,#147);
#112=LINE('',#552,#148);
#113=LINE('',#556,#149);
#114=LINE('',#558,#150);
#115=LINE('',#560,#151);
#116=LINE('',#561,#152);
#117=LINE('',#563,#153);
#118=LINE('',#564,#154);
#119=LINE('',#566,#155);
#120=LINE('',#567,#156);
#121=LINE('',#571,#157);
#122=LINE('',#573,#158);
#123=LINE('',#575,#159);
#124=LINE('',#576,#160);
#125=LINE('',#579,#161);
#126=LINE('',#581,#162);
#127=LINE('',#582,#163);
#128=LINE('',#585,#164);
#129=LINE('',#587,#165);
#130=LINE('',#588,#166);
#131=LINE('',#592,#167);
#132=LINE('',#594,#168);
#133=LINE('',#596,#169);
#134=LINE('',#597,#170);
#135=LINE('',#599,#171);
#136=LINE('',#600,#172);
#137=LINE('',#602,#173);
#138=LINE('',#603,#174);
#139=VECTOR('',#429,28.8675134594813);
#140=VECTOR('',#430,6.1);
#141=VECTOR('',#431,28.8675134594813);
#142=VECTOR('',#432,6.1);
#143=VECTOR('',#435,28.8675134594813);
#144=VECTOR('',#436,28.8675134594813);
#145=VECTOR('',#437,6.1);
#146=VECTOR('',#440,28.8675134594813);
#147=VECTOR('',#441,28.8675134594813);
#148=VECTOR('',#442,6.1);
#149=VECTOR('',#445,28.8675134594813);
#150=VECTOR('',#446,6.1);
#151=VECTOR('',#447,28.8675134594813);
#152=VECTOR('',#448,6.1);
#153=VECTOR('',#451,28.8675134594813);
#154=VECTOR('',#452,28.8675134594813);
#155=VECTOR('',#455,28.8675134594813);
#156=VECTOR('',#456,28.8675134594813);
#157=VECTOR('',#459,28.8675134594813);
#158=VECTOR('',#460,6.1);
#159=VECTOR('',#461,28.8675134594813);
#160=VECTOR('',#462,6.1);
#161=VECTOR('',#465,28.8675134594813);
#162=VECTOR('',#466,6.1);
#163=VECTOR('',#467,28.8675134594813);
#164=VECTOR('',#470,28.8675134594813);
#165=VECTOR('',#471,6.1);
#166=VECTOR('',#472,28.8675134594813);
#167=VECTOR('',#475,28.8675134594813);
#168=VECTOR('',#476,6.1);
#169=VECTOR('',#477,28.8675134594813);
#170=VECTOR('',#478,6.1);
#171=VECTOR('',#481,28.8675134594813);
#172=VECTOR('',#482,28.8675134594813);
#173=VECTOR('',#485,28.8675134594813);
#174=VECTOR('',#486,28.8675134594813);
#175=VERTEX_POINT('',#533);
#176=VERTEX_POINT('',#534);
#177=VERTEX_POINT('',#536);
#178=VERTEX_POINT('',#538);
#179=VERTEX_POINT('',#542);
#180=VERTEX_POINT('',#544);
#181=VERTEX_POINT('',#548);
#182=VERTEX_POINT('',#550);
#183=VERTEX_POINT('',#554);
#184=VERTEX_POINT('',#555);
#185=VERTEX_POINT('',#557);
#186=VERTEX_POINT('',#559);
#187=VERTEX_POINT('',#569);
#188=VERTEX_POINT('',#570);
#189=VERTEX_POINT('',#572);
#190=VERTEX_POINT('',#574);
#191=VERTEX_POINT('',#578);
#192=VERTEX_POINT('',#580);
#193=VERTEX_POINT('',#584);
#194=VERTEX_POINT('',#586);
#195=VERTEX_POINT('',#590);
#196=VERTEX_POINT('',#591);
#197=VERTEX_POINT('',#593);
#198=VERTEX_POINT('',#595);
#199=VERTEX_POINT('',#605);
#200=VERTEX_POINT('',#607);
#201=VERTEX_POINT('',#610);
#202=VERTEX_POINT('',#613);
#203=VERTEX_POINT('',#616);
#204=VERTEX_POINT('',#618);
#205=VERTEX_POINT('',#621);
#206=VERTEX_POINT('',#624);
#207=VERTEX_POINT('',#628);
#208=VERTEX_POINT('',#631);
#209=EDGE_CURVE('',#175,#176,#103,.T.);
#210=EDGE_CURVE('',#177,#175,#104,.T.);
#211=EDGE_CURVE('',#178,#177,#105,.T.);
#212=EDGE_CURVE('',#178,#176,#106,.T.);
#213=EDGE_CURVE('',#176,#179,#107,.T.);
#214=EDGE_CURVE('',#180,#178,#108,.T.);
#215=EDGE_CURVE('',#180,#179,#109,.T.);
#216=EDGE_CURVE('',#179,#181,#110,.T.);
#217=EDGE_CURVE('',#182,#180,#111,.T.);
#218=EDGE_CURVE('',#182,#181,#112,.T.);
#219=EDGE_CURVE('',#183,#184,#113,.T.);
#220=EDGE_CURVE('',#185,#183,#114,.T.);
#221=EDGE_CURVE('',#186,#185,#115,.T.);
#222=EDGE_CURVE('',#186,#184,#116,.T.);
#223=EDGE_CURVE('',#184,#175,#117,.T.);
#224=EDGE_CURVE('',#177,#186,#118,.T.);
#225=EDGE_CURVE('',#181,#183,#119,.T.);
#226=EDGE_CURVE('',#185,#182,#120,.T.);
#227=EDGE_CURVE('',#187,#188,#121,.T.);
#228=EDGE_CURVE('',#189,#188,#122,.T.);
#229=EDGE_CURVE('',#189,#190,#123,.T.);
#230=EDGE_CURVE('',#190,#187,#124,.T.);
#231=EDGE_CURVE('',#188,#191,#125,.T.);
#232=EDGE_CURVE('',#192,#191,#126,.T.);
#233=EDGE_CURVE('',#192,#189,#127,.T.);
#234=EDGE_CURVE('',#191,#193,#128,.T.);
#235=EDGE_CURVE('',#194,#193,#129,.T.);
#236=EDGE_CURVE('',#194,#192,#130,.T.);
#237=EDGE_CURVE('',#195,#196,#131,.T.);
#238=EDGE_CURVE('',#197,#196,#132,.T.);
#239=EDGE_CURVE('',#197,#198,#133,.T.);
#240=EDGE_CURVE('',#198,#195,#134,.T.);
#241=EDGE_CURVE('',#196,#187,#135,.T.);
#242=EDGE_CURVE('',#190,#197,#136,.T.);
#243=EDGE_CURVE('',#193,#195,#137,.T.);
#244=EDGE_CURVE('',#198,#194,#138,.T.);
#245=EDGE_CURVE('',#199,#199,#31,.T.);
#246=EDGE_CURVE('',#200,#200,#32,.T.);
#247=EDGE_CURVE('',#201,#201,#33,.T.);
#248=EDGE_CURVE('',#202,#202,#34,.T.);
#249=EDGE_CURVE('',#203,#203,#35,.T.);
#250=EDGE_CURVE('',#204,#204,#36,.T.);
#251=EDGE_CURVE('',#205,#205,#37,.T.);
#252=EDGE_CURVE('',#206,#206,#38,.T.);
#253=EDGE_CURVE('',#207,#207,#39,.T.);
#254=EDGE_CURVE('',#208,#208,#40,.T.);
#255=ORIENTED_EDGE('',*,*,#209,.F.);
#256=ORIENTED_EDGE('',*,*,#210,.F.);
#257=ORIENTED_EDGE('',*,*,#211,.F.);
#258=ORIENTED_EDGE('',*,*,#212,.T.);
#259=ORIENTED_EDGE('',*,*,#213,.F.);
#260=ORIENTED_EDGE('',*,*,#212,.F.);
#261=ORIENTED_EDGE('',*,*,#214,.F.);
#262=ORIENTED_EDGE('',*,*,#215,.T.);
#263=ORIENTED_EDGE('',*,*,#216,.F.);
#264=ORIENTED_EDGE('',*,*,#215,.F.);
#265=ORIENTED_EDGE('',*,*,#217,.F.);
#266=ORIENTED_EDGE('',*,*,#218,.T.);
#267=ORIENTED_EDGE('',*,*,#219,.F.);
#268=ORIENTED_EDGE('',*,*,#220,.F.);
#269=ORIENTED_EDGE('',*,*,#221,.F.);
#270=ORIENTED_EDGE('',*,*,#222,.T.);
#271=ORIENTED_EDGE('',*,*,#223,.F.);
#272=ORIENTED_EDGE('',*,*,#222,.F.);
#273=ORIENTED_EDGE('',*,*,#224,.F.);
#274=ORIENTED_EDGE('',*,*,#210,.T.);
#275=ORIENTED_EDGE('',*,*,#225,.F.);
#276=ORIENTED_EDGE('',*,*,#218,.F.);
#277=ORIENTED_EDGE('',*,*,#226,.F.);
#278=ORIENTED_EDGE('',*,*,#220,.T.);
#279=ORIENTED_EDGE('',*,*,#227,.T.);
#280=ORIENTED_EDGE('',*,*,#228,.F.);
#281=ORIENTED_EDGE('',*,*,#229,.T.);
#282=ORIENTED_EDGE('',*,*,#230,.T.);
#283=ORIENTED_EDGE('',*,*,#231,.T.);
#284=ORIENTED_EDGE('',*,*,#232,.F.);
#285=ORIENTED_EDGE('',*,*,#233,.T.);
#286=ORIENTED_EDGE('',*,*,#228,.T.);
#287=ORIENTED_EDGE('',*,*,#234,.T.);
#288=ORIENTED_EDGE('',*,*,#235,.F.);
#289=ORIENTED_EDGE('',*,*,#236,.T.);
#290=ORIENTED_EDGE('',*,*,#232,.T.);
#291=ORIENTED_EDGE('',*,*,#237,.T.);
#292=ORIENTED_EDGE('',*,*,#238,.F.);
#293=ORIENTED_EDGE('',*,*,#239,.T.);
#294=ORIENTED_EDGE('',*,*,#240,.T.);
#295=ORIENTED_EDGE('',*,*,#241,.T.);
#296=ORIENTED_EDGE('',*,*,#230,.F.);
#297=ORIENTED_EDGE('',*,*,#242,.T.);
#298=ORIENTED_EDGE('',*,*,#238,.T.);
#299=ORIENTED_EDGE('',*,*,#243,.T.);
#300=ORIENTED_EDGE('',*,*,#240,.F.);
#301=ORIENTED_EDGE('',*,*,#244,.T.);
#302=ORIENTED_EDGE('',*,*,#235,.T.);
#303=ORIENTED_EDGE('',*,*,#245,.T.);
#304=ORIENTED_EDGE('',*,*,#246,.T.);
#305=ORIENTED_EDGE('',*,*,#247,.T.);
#306=ORIENTED_EDGE('',*,*,#245,.F.);
#307=ORIENTED_EDGE('',*,*,#246,.F.);
#308=ORIENTED_EDGE('',*,*,#248,.F.);
#309=ORIENTED_EDGE('',*,*,#249,.T.);
#310=ORIENTED_EDGE('',*,*,#250,.T.);
#311=ORIENTED_EDGE('',*,*,#249,.F.);
#312=ORIENTED_EDGE('',*,*,#251,.T.);
#313=ORIENTED_EDGE('',*,*,#252,.F.);
#314=ORIENTED_EDGE('',*,*,#250,.F.);
#315=ORIENTED_EDGE('',*,*,#226,.T.);
#316=ORIENTED_EDGE('',*,*,#217,.T.);
#317=ORIENTED_EDGE('',*,*,#214,.T.);
#318=ORIENTED_EDGE('',*,*,#211,.T.);
#319=ORIENTED_EDGE('',*,*,#224,.T.);
#320=ORIENTED_EDGE('',*,*,#221,.T.);
#321=ORIENTED_EDGE('',*,*,#252,.T.);
#322=ORIENTED_EDGE('',*,*,#223,.T.);
#323=ORIENTED_EDGE('',*,*,#209,.T.);
#324=ORIENTED_EDGE('',*,*,#213,.T.);
#325=ORIENTED_EDGE('',*,*,#216,.T.);
#326=ORIENTED_EDGE('',*,*,#225,.T.);
#327=ORIENTED_EDGE('',*,*,#219,.T.);
#328=ORIENTED_EDGE('',*,*,#253,.F.);
#329=ORIENTED_EDGE('',*,*,#254,.F.);
#330=ORIENTED_EDGE('',*,*,#253,.T.);
#331=ORIENTED_EDGE('',*,*,#243,.F.);
#332=ORIENTED_EDGE('',*,*,#234,.F.);
#333=ORIENTED_EDGE('',*,*,#231,.F.);
#334=ORIENTED_EDGE('',*,*,#227,.F.);
#335=ORIENTED_EDGE('',*,*,#241,.F.);
#336=ORIENTED_EDGE('',*,*,#237,.F.);
#337=ORIENTED_EDGE('',*,*,#254,.T.);
#338=ORIENTED_EDGE('',*,*,#242,.F.);
#339=ORIENTED_EDGE('',*,*,#229,.F.);
#340=ORIENTED_EDGE('',*,*,#233,.F.);
#341=ORIENTED_EDGE('',*,*,#236,.F.);
#342=ORIENTED_EDGE('',*,*,#244,.F.);
#343=ORIENTED_EDGE('',*,*,#239,.F.);
#344=ORIENTED_EDGE('',*,*,#247,.F.);
#345=ORIENTED_EDGE('',*,*,#251,.F.);
#346=ORIENTED_EDGE('',*,*,#248,.T.);
#347=PLANE('',#391);
#348=PLANE('',#392);
#349=PLANE('',#393);
#350=PLANE('',#394);
#351=PLANE('',#395);
#352=PLANE('',#396);
#353=PLANE('',#397);
#354=PLANE('',#398);
#355=PLANE('',#399);
#356=PLANE('',#400);
#357=PLANE('',#401);
#358=PLANE('',#402);
#359=PLANE('',#408);
#360=PLANE('',#413);
#361=PLANE('',#417);
#362=PLANE('',#418);
#363=PLANE('',#422);
#364=PLANE('',#423);
#365=ADVANCED_FACE('',(#43),#347,.F.);
#366=ADVANCED_FACE('',(#44),#348,.F.);
#367=ADVANCED_FACE('',(#45),#349,.F.);
#368=ADVANCED_FACE('',(#46),#350,.F.);
#369=ADVANCED_FACE('',(#47),#351,.F.);
#370=ADVANCED_FACE('',(#48),#352,.F.);
#371=ADVANCED_FACE('',(#49),#353,.T.);
#372=ADVANCED_FACE('',(#50),#354,.T.);
#373=ADVANCED_FACE('',(#51),#355,.T.);
#374=ADVANCED_FACE('',(#52),#356,.T.);
#375=ADVANCED_FACE('',(#53),#357,.T.);
#376=ADVANCED_FACE('',(#54),#358,.T.);
#377=ADVANCED_FACE('',(#55,#19),#41,.T.);
#378=ADVANCED_FACE('',(#56,#20),#15,.T.);
#379=ADVANCED_FACE('',(#57,#21),#359,.T.);
#380=ADVANCED_FACE('',(#58,#22),#42,.T.);
#381=ADVANCED_FACE('',(#59,#23),#360,.T.);
#382=ADVANCED_FACE('',(#60,#24),#16,.T.);
#383=ADVANCED_FACE('',(#61,#25),#361,.T.);
#384=ADVANCED_FACE('',(#62,#26),#362,.T.);
#385=ADVANCED_FACE('',(#63,#27),#17,.T.);
#386=ADVANCED_FACE('',(#64,#28),#363,.T.);
#387=ADVANCED_FACE('',(#65,#29),#364,.T.);
#388=ADVANCED_FACE('',(#66,#30),#18,.F.);
#389=CLOSED_SHELL('',(#365,#366,#367,#368,#369,#370,#371,#372,#373,#374,
#375,#376,#377,#378,#379,#380,#381,#382,#383,#384,#385,#386,#387,#388));
#390=AXIS2_PLACEMENT_3D('placement',#531,#425,#426);
#391=AXIS2_PLACEMENT_3D('',#532,#427,#428);
#392=AXIS2_PLACEMENT_3D('',#541,#433,#434);
#393=AXIS2_PLACEMENT_3D('',#547,#438,#439);
#394=AXIS2_PLACEMENT_3D('',#553,#443,#444);
#395=AXIS2_PLACEMENT_3D('',#562,#449,#450);
#396=AXIS2_PLACEMENT_3D('',#565,#453,#454);
#397=AXIS2_PLACEMENT_3D('',#568,#457,#458);
#398=AXIS2_PLACEMENT_3D('',#577,#463,#464);
#399=AXIS2_PLACEMENT_3D('',#583,#468,#469);
#400=AXIS2_PLACEMENT_3D('',#589,#473,#474);
#401=AXIS2_PLACEMENT_3D('',#598,#479,#480);
#402=AXIS2_PLACEMENT_3D('',#601,#483,#484);
#403=AXIS2_PLACEMENT_3D('',#604,#487,#488);
#404=AXIS2_PLACEMENT_3D('',#606,#489,#490);
#405=AXIS2_PLACEMENT_3D('',#608,#491,#492);
#406=AXIS2_PLACEMENT_3D('',#609,#493,#494);
#407=AXIS2_PLACEMENT_3D('',#611,#495,#496);
#408=AXIS2_PLACEMENT_3D('',#612,#497,#498);
#409=AXIS2_PLACEMENT_3D('',#614,#499,#500);
#410=AXIS2_PLACEMENT_3D('',#615,#501,#502);
#411=AXIS2_PLACEMENT_3D('',#617,#503,#504);
#412=AXIS2_PLACEMENT_3D('',#619,#505,#506);
#413=AXIS2_PLACEMENT_3D('',#620,#507,#508);
#414=AXIS2_PLACEMENT_3D('',#622,#509,#510);
#415=AXIS2_PLACEMENT_3D('',#623,#511,#512);
#416=AXIS2_PLACEMENT_3D('',#625,#513,#514);
#417=AXIS2_PLACEMENT_3D('',#626,#515,#516);
#418=AXIS2_PLACEMENT_3D('',#627,#517,#518);
#419=AXIS2_PLACEMENT_3D('',#629,#519,#520);
#420=AXIS2_PLACEMENT_3D('',#630,#521,#522);
#421=AXIS2_PLACEMENT_3D('',#632,#523,#524);
#422=AXIS2_PLACEMENT_3D('',#633,#525,#526);
#423=AXIS2_PLACEMENT_3D('',#634,#527,#528);
#424=AXIS2_PLACEMENT_3D('',#635,#529,#530);
#425=DIRECTION('axis',(0.,0.,1.));
#426=DIRECTION('refdir',(1.,0.,0.));
#427=DIRECTION('center_axis',(0.,0.999995690822033,0.00293570048952254));
#428=DIRECTION('ref_axis',(0.,-0.00293570048952248,0.999995690822033));
#429=DIRECTION('',(0.,0.00293570048952254,-0.999995690822033));
#430=DIRECTION('',(1.,0.,0.));
#431=DIRECTION('',(0.,-0.00293570048952254,0.999995690822033));
#432=DIRECTION('',(1.,0.,0.));
#433=DIRECTION('center_axis',(0.,0.497455454209188,0.867489522171611));
#434=DIRECTION('ref_axis',(0.,-0.867489522171611,0.497455454209188));
#435=DIRECTION('',(0.,0.867489522171611,-0.497455454209188));
#436=DIRECTION('',(0.,-0.867489522171611,0.497455454209188));
#437=DIRECTION('',(1.,0.,0.));
#438=DIRECTION('center_axis',(0.,-0.502540236612845,0.86455382168209));
#439=DIRECTION('ref_axis',(0.,-0.864553821682089,-0.502540236612845));
#440=DIRECTION('',(0.,0.86455382168209,0.502540236612845));
#441=DIRECTION('',(0.,-0.86455382168209,-0.502540236612845));
#442=DIRECTION('',(1.,0.,0.));
#443=DIRECTION('center_axis',(0.,-0.497455454209188,-0.867489522171611));
#444=DIRECTION('ref_axis',(0.,0.867489522171611,-0.497455454209188));
#445=DIRECTION('',(0.,-0.867489522171611,0.497455454209188));
#446=DIRECTION('',(1.,0.,0.));
#447=DIRECTION('',(0.,0.867489522171611,-0.497455454209188));
#448=DIRECTION('',(1.,0.,0.));
#449=DIRECTION('center_axis',(0.,0.502540236612845,-0.864553821682089));
#450=DIRECTION('ref_axis',(0.,0.864553821682089,0.502540236612845));
#451=DIRECTION('',(0.,-0.864553821682089,-0.502540236612845));
#452=DIRECTION('',(0.,0.864553821682089,0.502540236612845));
#453=DIRECTION('center_axis',(0.,-0.999995690822033,-0.00293570048952146));
#454=DIRECTION('ref_axis',(0.,0.00293570048952141,-0.999995690822033));
#455=DIRECTION('',(0.,-0.00293570048952146,0.999995690822033));
#456=DIRECTION('',(0.,0.00293570048952146,-0.999995690822033));
#457=DIRECTION('center_axis',(0.,-0.999995690822033,-0.00293570048952254));
#458=DIRECTION('ref_axis',(0.,-0.00293570048952248,0.999995690822033));
#459=DIRECTION('',(0.,0.00293570048952254,-0.999995690822033));
#460=DIRECTION('',(-1.,0.,0.));
#461=DIRECTION('',(0.,-0.00293570048952254,0.999995690822033));
#462=DIRECTION('',(-1.,0.,0.));
#463=DIRECTION('center_axis',(0.,-0.497455454209188,-0.867489522171611));
#464=DIRECTION('ref_axis',(0.,-0.867489522171611,0.497455454209188));
#465=DIRECTION('',(0.,0.867489522171611,-0.497455454209188));
#466=DIRECTION('',(-1.,0.,0.));
#467=DIRECTION('',(0.,-0.867489522171611,0.497455454209188));
#468=DIRECTION('center_axis',(0.,0.502540236612845,-0.86455382168209));
#469=DIRECTION('ref_axis',(0.,-0.864553821682089,-0.502540236612845));
#470=DIRECTION('',(0.,0.86455382168209,0.502540236612845));
#471=DIRECTION('',(-1.,0.,0.));
#472=DIRECTION('',(0.,-0.86455382168209,-0.502540236612845));
#473=DIRECTION('center_axis',(0.,0.497455454209188,0.867489522171611));
#474=DIRECTION('ref_axis',(0.,0.867489522171611,-0.497455454209188));
#475=DIRECTION('',(0.,-0.867489522171611,0.497455454209188));
#476=DIRECTION('',(-1.,0.,0.));
#477=DIRECTION('',(0.,0.867489522171611,-0.497455454209188));
#478=DIRECTION('',(-1.,0.,0.));
#479=DIRECTION('center_axis',(0.,-0.502540236612845,0.864553821682089));
#480=DIRECTION('ref_axis',(0.,0.864553821682089,0.502540236612845));
#481=DIRECTION('',(0.,-0.864553821682089,-0.502540236612845));
#482=DIRECTION('',(0.,0.864553821682089,0.502540236612845));
#483=DIRECTION('center_axis',(0.,0.999995690822033,0.00293570048952146));
#484=DIRECTION('ref_axis',(0.,0.00293570048952141,-0.999995690822033));
#485=DIRECTION('',(0.,-0.00293570048952146,0.999995690822033));
#486=DIRECTION('',(0.,0.00293570048952146,-0.999995690822033));
#487=DIRECTION('center_axis',(-1.,0.,0.));
#488=DIRECTION('ref_axis',(0.,-1.,0.));
#489=DIRECTION('center_axis',(1.,0.,0.));
#490=DIRECTION('ref_axis',(0.,-1.,0.));
#491=DIRECTION('center_axis',(-1.,0.,0.));
#492=DIRECTION('ref_axis',(0.,-1.,0.));
#493=DIRECTION('center_axis',(1.,0.,0.));
#494=DIRECTION('ref_axis',(0.,1.,0.));
#495=DIRECTION('center_axis',(1.,0.,0.));
#496=DIRECTION('ref_axis',(0.,0.,-1.));
#497=DIRECTION('center_axis',(1.,0.,0.));
#498=DIRECTION('ref_axis',(0.,0.,-1.));
#499=DIRECTION('center_axis',(1.,0.,0.));
#500=DIRECTION('ref_axis',(0.,0.,-1.));
#501=DIRECTION('center_axis',(1.,0.,0.));
#502=DIRECTION('ref_axis',(0.,-1.,0.));
#503=DIRECTION('center_axis',(1.,0.,0.));
#504=DIRECTION('ref_axis',(0.,-1.,0.));
#505=DIRECTION('center_axis',(-1.,0.,0.));
#506=DIRECTION('ref_axis',(0.,-1.,0.));
#507=DIRECTION('center_axis',(-1.,0.,0.));
#508=DIRECTION('ref_axis',(0.,0.,1.));
#509=DIRECTION('center_axis',(1.,0.,0.));
#510=DIRECTION('ref_axis',(0.,0.,-1.));
#511=DIRECTION('center_axis',(1.,0.,0.));
#512=DIRECTION('ref_axis',(0.,1.,0.));
#513=DIRECTION('center_axis',(1.,0.,0.));
#514=DIRECTION('ref_axis',(0.,0.,-1.));
#515=DIRECTION('center_axis',(-1.,0.,0.));
#516=DIRECTION('ref_axis',(0.,0.,1.));
#517=DIRECTION('center_axis',(1.,0.,0.));
#518=DIRECTION('ref_axis',(0.,0.,-1.));
#519=DIRECTION('center_axis',(1.,0.,0.));
#520=DIRECTION('ref_axis',(0.,0.,-1.));
#521=DIRECTION('center_axis',(1.,0.,0.));
#522=DIRECTION('ref_axis',(0.,1.,0.));
#523=DIRECTION('center_axis',(1.,0.,0.));
#524=DIRECTION('ref_axis',(0.,0.,-1.));
#525=DIRECTION('center_axis',(-1.,0.,0.));
#526=DIRECTION('ref_axis',(0.,0.,1.));
#527=DIRECTION('center_axis',(1.,0.,0.));
#528=DIRECTION('ref_axis',(0.,0.,-1.));
#529=DIRECTION('center_axis',(1.,0.,0.));
#530=DIRECTION('ref_axis',(0.,1.,0.));
#531=CARTESIAN_POINT('',(0.,0.,0.));
#532=CARTESIAN_POINT('Origin',(-8.5,-24.9575190838537,-14.5070870443522));
#533=CARTESIAN_POINT('',(-2.4,-25.042265457248,14.3603020198761));
#534=CARTESIAN_POINT('',(-2.4,-24.9575190838537,-14.5070870443522));
#535=CARTESIAN_POINT('',(-2.4,-24.9787056772023,-7.29023977829515));
#536=CARTESIAN_POINT('',(-8.5,-25.042265457248,14.3603020198761));
#537=CARTESIAN_POINT('',(-8.5,-25.042265457248,14.3603020198761));
#538=CARTESIAN_POINT('',(-8.5,-24.9575190838537,-14.5070870443522));
#539=CARTESIAN_POINT('',(-8.5,-24.9575190838537,-14.5070870443522));
#540=CARTESIAN_POINT('',(-8.5,-24.9575190838537,-14.5070870443522));
#541=CARTESIAN_POINT('Origin',(-8.5,0.084746373394267,-28.8673890642284));
#542=CARTESIAN_POINT('',(-2.4,0.084746373394267,-28.8673890642284));
#543=CARTESIAN_POINT('',(-2.4,-6.17581999091773,-25.2773135592593));
#544=CARTESIAN_POINT('',(-8.5,0.084746373394267,-28.8673890642284));
#545=CARTESIAN_POINT('',(-8.5,0.084746373394267,-28.8673890642284));
#546=CARTESIAN_POINT('',(-8.5,0.084746373394267,-28.8673890642284));
#547=CARTESIAN_POINT('Origin',(-8.5,25.042265457248,-14.3603020198761));
#548=CARTESIAN_POINT('',(-2.4,25.042265457248,-14.3603020198761));
#549=CARTESIAN_POINT('',(-2.4,18.8028856862846,-17.9870737809642));
#550=CARTESIAN_POINT('',(-8.5,25.042265457248,-14.3603020198761));
#551=CARTESIAN_POINT('',(-8.5,25.042265457248,-14.3603020198761));
#552=CARTESIAN_POINT('',(-8.5,25.042265457248,-14.3603020198761));
#553=CARTESIAN_POINT('Origin',(-8.5,-0.0847463733942887,28.8673890642284));
#554=CARTESIAN_POINT('',(-2.4,24.9575190838537,14.5070870443522));
#555=CARTESIAN_POINT('',(-2.4,-0.0847463733942887,28.8673890642284));
#556=CARTESIAN_POINT('',(-2.4,6.17581999091771,25.2773135592593));
#557=CARTESIAN_POINT('',(-8.5,24.9575190838537,14.5070870443522));
#558=CARTESIAN_POINT('',(-8.5,24.9575190838537,14.5070870443522));
#559=CARTESIAN_POINT('',(-8.5,-0.0847463733942887,28.8673890642284));
#560=CARTESIAN_POINT('',(-8.5,-0.0847463733942887,28.8673890642284));
#561=CARTESIAN_POINT('',(-8.5,-0.0847463733942887,28.8673890642284));
#562=CARTESIAN_POINT('Origin',(-8.5,-25.042265457248,14.3603020198761));
#563=CARTESIAN_POINT('',(-2.4,-18.8028856862846,17.9870737809642));
#564=CARTESIAN_POINT('',(-8.5,-25.042265457248,14.3603020198761));
#565=CARTESIAN_POINT('Origin',(-8.5,24.9998922705508,0.0733925122380419));
#566=CARTESIAN_POINT('',(-2.4,24.9998922705508,0.0733925122380381));
#567=CARTESIAN_POINT('',(-8.5,24.9575190838537,14.5070870443522));
#568=CARTESIAN_POINT('Origin',(8.5,-24.9575190838537,-14.5070870443522));
#569=CARTESIAN_POINT('',(2.4,-25.042265457248,14.3603020198761));
#570=CARTESIAN_POINT('',(2.4,-24.9575190838537,-14.5070870443522));
#571=CARTESIAN_POINT('',(2.4,-24.9787056772023,-7.29023977829515));
#572=CARTESIAN_POINT('',(8.5,-24.9575190838537,-14.5070870443522));
#573=CARTESIAN_POINT('',(8.5,-24.9575190838537,-14.5070870443522));
#574=CARTESIAN_POINT('',(8.5,-25.042265457248,14.3603020198761));
#575=CARTESIAN_POINT('',(8.5,-24.9575190838537,-14.5070870443522));
#576=CARTESIAN_POINT('',(8.5,-25.042265457248,14.3603020198761));
#577=CARTESIAN_POINT('Origin',(8.5,0.084746373394267,-28.8673890642284));
#578=CARTESIAN_POINT('',(2.4,0.084746373394267,-28.8673890642284));
#579=CARTESIAN_POINT('',(2.4,-6.17581999091773,-25.2773135592593));
#580=CARTESIAN_POINT('',(8.5,0.084746373394267,-28.8673890642284));
#581=CARTESIAN_POINT('',(8.5,0.084746373394267,-28.8673890642284));
#582=CARTESIAN_POINT('',(8.5,0.084746373394267,-28.8673890642284));
#583=CARTESIAN_POINT('Origin',(8.5,25.042265457248,-14.3603020198761));
#584=CARTESIAN_POINT('',(2.4,25.042265457248,-14.3603020198761));
#585=CARTESIAN_POINT('',(2.4,18.8028856862846,-17.9870737809642));
#586=CARTESIAN_POINT('',(8.5,25.042265457248,-14.3603020198761));
#587=CARTESIAN_POINT('',(8.5,25.042265457248,-14.3603020198761));
#588=CARTESIAN_POINT('',(8.5,25.042265457248,-14.3603020198761));
#589=CARTESIAN_POINT('Origin',(8.5,-0.0847463733942887,28.8673890642284));
#590=CARTESIAN_POINT('',(2.4,24.9575190838537,14.5070870443522));
#591=CARTESIAN_POINT('',(2.4,-0.0847463733942887,28.8673890642284));
#592=CARTESIAN_POINT('',(2.4,6.17581999091771,25.2773135592593));
#593=CARTESIAN_POINT('',(8.5,-0.0847463733942887,28.8673890642284));
#594=CARTESIAN_POINT('',(8.5,-0.0847463733942887,28.8673890642284));
#595=CARTESIAN_POINT('',(8.5,24.9575190838537,14.5070870443522));
#596=CARTESIAN_POINT('',(8.5,-0.0847463733942887,28.8673890642284));
#597=CARTESIAN_POINT('',(8.5,24.9575190838537,14.5070870443522));
#598=CARTESIAN_POINT('Origin',(8.5,-25.042265457248,14.3603020198761));
#599=CARTESIAN_POINT('',(2.4,-18.8028856862846,17.9870737809642));
#600=CARTESIAN_POINT('',(8.5,-25.042265457248,14.3603020198761));
#601=CARTESIAN_POINT('Origin',(8.5,24.9998922705508,0.0733925122380419));
#602=CARTESIAN_POINT('',(2.4,24.9998922705508,0.0733925122380381));
#603=CARTESIAN_POINT('',(8.5,24.9575190838537,14.5070870443522));
#604=CARTESIAN_POINT('Origin',(30.195,1.11022302462516E-15,0.));
#605=CARTESIAN_POINT('',(29.89,23.9015,2.92708954698205E-15));
#606=CARTESIAN_POINT('Origin',(29.89,1.11022302462516E-15,0.));
#607=CARTESIAN_POINT('',(30.5,23.2915,-2.85238609223406E-15));
#608=CARTESIAN_POINT('Origin',(30.5,1.11022302462516E-15,0.));
#609=CARTESIAN_POINT('Origin',(19.5,1.11022302462516E-15,0.));
#610=CARTESIAN_POINT('',(8.5,23.9015,0.));
#611=CARTESIAN_POINT('Origin',(8.5,1.11022302462516E-15,0.));
#612=CARTESIAN_POINT('Origin',(30.5,19.1212,0.));
#613=CARTESIAN_POINT('',(30.5,19.1212,0.));
#614=CARTESIAN_POINT('Origin',(30.5,1.11022302462516E-15,0.));
#615=CARTESIAN_POINT('Origin',(-30.195,1.11022302462516E-15,0.));
#616=CARTESIAN_POINT('',(-30.5,23.2915,2.85238609223406E-15));
#617=CARTESIAN_POINT('Origin',(-30.5,1.11022302462516E-15,0.));
#618=CARTESIAN_POINT('',(-29.89,23.9015,-2.92708954698205E-15));
#619=CARTESIAN_POINT('Origin',(-29.89,1.11022302462516E-15,0.));
#620=CARTESIAN_POINT('Origin',(-30.5,23.9015,0.));
#621=CARTESIAN_POINT('',(-30.5,19.1212,0.));
#622=CARTESIAN_POINT('Origin',(-30.5,1.11022302462516E-15,0.));
#623=CARTESIAN_POINT('Origin',(-19.5,1.11022302462516E-15,0.));
#624=CARTESIAN_POINT('',(-8.5,23.9015,0.));
#625=CARTESIAN_POINT('Origin',(-8.5,1.11022302462516E-15,0.));
#626=CARTESIAN_POINT('Origin',(-8.5,25.,0.));
#627=CARTESIAN_POINT('Origin',(-2.4,23.9015,0.));
#628=CARTESIAN_POINT('',(-2.4,23.9015,0.));
#629=CARTESIAN_POINT('Origin',(-2.4,1.11022302462516E-15,0.));
#630=CARTESIAN_POINT('Origin',(0.,1.11022302462516E-15,0.));
#631=CARTESIAN_POINT('',(2.4,23.9015,0.));
#632=CARTESIAN_POINT('Origin',(2.4,1.11022302462516E-15,0.));
#633=CARTESIAN_POINT('Origin',(2.4,25.,0.));
#634=CARTESIAN_POINT('Origin',(8.5,23.9015,0.));
#635=CARTESIAN_POINT('Origin',(0.,1.11022302462516E-15,0.));
#636=UNCERTAINTY_MEASURE_WITH_UNIT(LENGTH_MEASURE(0.01),#640,
'DISTANCE_ACCURACY_VALUE',
'Maximum model space distance between geometric entities at asserted c
onnectivities');
#637=UNCERTAINTY_MEASURE_WITH_UNIT(LENGTH_MEASURE(1.E-6),#640,
'DISTANCE_ACCURACY_VALUE',
'Maximum model space distance between geometric entities at asserted c
onnectivities');
#638=(
GEOMETRIC_REPRESENTATION_CONTEXT(3)
GLOBAL_UNCERTAINTY_ASSIGNED_CONTEXT((#636))
GLOBAL_UNIT_ASSIGNED_CONTEXT((#640,#643,#641))
REPRESENTATION_CONTEXT('','3D')
);
#639=(
GEOMETRIC_REPRESENTATION_CONTEXT(3)
GLOBAL_UNCERTAINTY_ASSIGNED_CONTEXT((#637))
GLOBAL_UNIT_ASSIGNED_CONTEXT((#640,#643,#641))
REPRESENTATION_CONTEXT('','3D')
);
#640=(
LENGTH_UNIT()
NAMED_UNIT(*)
SI_UNIT(.MILLI.,.METRE.)
);
#641=(
NAMED_UNIT(*)
SI_UNIT($,.STERADIAN.)
SOLID_ANGLE_UNIT()
);
#642=DIMENSIONAL_EXPONENTS(0.,0.,0.,0.,0.,0.,0.);
#643=(
CONVERSION_BASED_UNIT('degree',#645)
NAMED_UNIT(#642)
PLANE_ANGLE_UNIT()
);
#644=(
NAMED_UNIT(*)
PLANE_ANGLE_UNIT()
SI_UNIT($,.RADIAN.)
);
#645=PLANE_ANGLE_MEASURE_WITH_UNIT(PLANE_ANGLE_MEASURE(0.01745329252),#644);
#646=SHAPE_DEFINITION_REPRESENTATION(#647,#648);
#647=PRODUCT_DEFINITION_SHAPE('',$,#650);
#648=SHAPE_REPRESENTATION('',(#390),#638);
#649=PRODUCT_DEFINITION_CONTEXT('part definition',#654,'design');
#650=PRODUCT_DEFINITION('050607015_0506070150A','050607015_0506070150A',
#651,#649);
#651=PRODUCT_DEFINITION_FORMATION('',$,#656);
#652=PRODUCT_RELATED_PRODUCT_CATEGORY('050607015_0506070150A',
'050607015_0506070150A',(#656));
#653=APPLICATION_PROTOCOL_DEFINITION('international standard',
'automotive_design',2009,#654);
#654=APPLICATION_CONTEXT(
'Core Data for Automotive Mechanical Design Process');
#655=PRODUCT_CONTEXT('part definition',#654,'mechanical');
#656=PRODUCT('050607015_0506070150A','050607015_0506070150A',$,(#655));
#657=PRESENTATION_STYLE_ASSIGNMENT((#658));
#658=SURFACE_STYLE_USAGE(.BOTH.,#659);
#659=SURFACE_SIDE_STYLE($,(#660));
#660=SURFACE_STYLE_FILL_AREA(#661);
#661=FILL_AREA_STYLE($,(#662));
#662=FILL_AREA_STYLE_COLOUR($,#663);
#663=COLOUR_RGB('',0.749019607843137,0.749019607843137,0.749019607843137);
ENDSEC;
END-ISO-10303-21;
