ISO-10303-21;
HEADER;
/* Generated by software containing ST-Developer
 * from STEP Tools, Inc. (www.steptools.com) 
 */

FILE_DESCRIPTION(
/* description */ ('PLASSON THREADED ELBOW 3/4"-3/4"'),
/* implementation_level */ '2;1');

FILE_NAME(
/* name */ 
'C:\\Dropbox\\KIMPROJECTS-Inventor\\99-16-3568-Processing\\Mechanical 
Fittings\\Bulk 08.06.17\\050507\\050507007_0505070070A.ipt.stp',
/* time_stamp */ '2017-06-18T09:21:29+03:00',
/* author */ ('KIM'),
/* organization */ (''),
/* preprocessor_version */ 'ST-DEVELOPER v15.6',
/* originating_system */ 'Autodesk Inventor 2015',
/* authorisation */ '');

FILE_SCHEMA (('AUTOMOTIVE_DESIGN { 1 0 10303 214 3 1 1 }'));
ENDSEC;

DATA;
#10=MECHANICAL_DESIGN_GEOMETRIC_PRESENTATION_REPRESENTATION('',(#13),#503);
#11=SHAPE_REPRESENTATION_RELATIONSHIP('SRR','None',#512,#12);
#12=ADVANCED_BREP_SHAPE_REPRESENTATION($,(#14),#502);
#13=STYLED_ITEM('',(#521),#14);
#14=MANIFOLD_SOLID_BREP('Solid1',#279);
#15=PLANE('',#292);
#16=PLANE('',#313);
#17=CYLINDRICAL_SURFACE('',#290,15.67605);
#18=CYLINDRICAL_SURFACE('',#294,12.0585);
#19=CYLINDRICAL_SURFACE('',#298,10.85265);
#20=CYLINDRICAL_SURFACE('',#299,13.26435);
#21=CYLINDRICAL_SURFACE('',#303,15.67605);
#22=CYLINDRICAL_SURFACE('',#311,15.67605);
#23=CYLINDRICAL_SURFACE('',#315,12.0585);
#24=CYLINDRICAL_SURFACE('',#319,10.85265);
#25=CYLINDRICAL_SURFACE('',#320,13.26435);
#26=CYLINDRICAL_SURFACE('',#324,15.67605);
#27=CONICAL_SURFACE('',#287,15.43488,45.0000000000001);
#28=CONICAL_SURFACE('',#296,11.455575,45.0000000000001);
#29=CONICAL_SURFACE('',#301,14.4702,45.);
#30=CONICAL_SURFACE('',#305,15.42605,63.4349488229217);
#31=CONICAL_SURFACE('',#307,15.42605,63.4349488229226);
#32=CONICAL_SURFACE('',#308,15.43488,45.0000000000001);
#33=CONICAL_SURFACE('',#317,11.455575,45.0000000000001);
#34=CONICAL_SURFACE('',#322,14.4702,45.);
#35=CONICAL_SURFACE('',#326,15.42605,63.4349488229217);
#36=CONICAL_SURFACE('',#328,15.42605,63.4349488229226);
#37=FACE_BOUND('',#86,.T.);
#38=FACE_BOUND('',#88,.T.);
#39=FACE_BOUND('',#90,.T.);
#40=FACE_BOUND('',#92,.T.);
#41=FACE_BOUND('',#94,.T.);
#42=FACE_BOUND('',#96,.T.);
#43=FACE_BOUND('',#98,.T.);
#44=FACE_BOUND('',#100,.T.);
#45=FACE_BOUND('',#102,.T.);
#46=FACE_BOUND('',#104,.T.);
#47=FACE_BOUND('',#106,.T.);
#48=FACE_BOUND('',#108,.T.);
#49=FACE_BOUND('',#110,.T.);
#50=FACE_BOUND('',#112,.T.);
#51=FACE_BOUND('',#114,.T.);
#52=FACE_BOUND('',#116,.T.);
#53=FACE_BOUND('',#118,.T.);
#54=FACE_BOUND('',#120,.T.);
#55=FACE_BOUND('',#122,.T.);
#56=FACE_BOUND('',#124,.T.);
#57=FACE_BOUND('',#126,.T.);
#58=FACE_BOUND('',#128,.T.);
#59=FACE_BOUND('',#130,.T.);
#60=FACE_BOUND('',#132,.T.);
#61=FACE_OUTER_BOUND('',#85,.T.);
#62=FACE_OUTER_BOUND('',#87,.T.);
#63=FACE_OUTER_BOUND('',#89,.T.);
#64=FACE_OUTER_BOUND('',#91,.T.);
#65=FACE_OUTER_BOUND('',#93,.T.);
#66=FACE_OUTER_BOUND('',#95,.T.);
#67=FACE_OUTER_BOUND('',#97,.T.);
#68=FACE_OUTER_BOUND('',#99,.T.);
#69=FACE_OUTER_BOUND('',#101,.T.);
#70=FACE_OUTER_BOUND('',#103,.T.);
#71=FACE_OUTER_BOUND('',#105,.T.);
#72=FACE_OUTER_BOUND('',#107,.T.);
#73=FACE_OUTER_BOUND('',#109,.T.);
#74=FACE_OUTER_BOUND('',#111,.T.);
#75=FACE_OUTER_BOUND('',#113,.T.);
#76=FACE_OUTER_BOUND('',#115,.T.);
#77=FACE_OUTER_BOUND('',#117,.T.);
#78=FACE_OUTER_BOUND('',#119,.T.);
#79=FACE_OUTER_BOUND('',#121,.T.);
#80=FACE_OUTER_BOUND('',#123,.T.);
#81=FACE_OUTER_BOUND('',#125,.T.);
#82=FACE_OUTER_BOUND('',#127,.T.);
#83=FACE_OUTER_BOUND('',#129,.T.);
#84=FACE_OUTER_BOUND('',#131,.T.);
#85=EDGE_LOOP('',(#205));
#86=EDGE_LOOP('',(#206));
#87=EDGE_LOOP('',(#207));
#88=EDGE_LOOP('',(#208));
#89=EDGE_LOOP('',(#209));
#90=EDGE_LOOP('',(#210));
#91=EDGE_LOOP('',(#211));
#92=EDGE_LOOP('',(#212));
#93=EDGE_LOOP('',(#213));
#94=EDGE_LOOP('',(#214));
#95=EDGE_LOOP('',(#215));
#96=EDGE_LOOP('',(#216));
#97=EDGE_LOOP('',(#217));
#98=EDGE_LOOP('',(#218));
#99=EDGE_LOOP('',(#219));
#100=EDGE_LOOP('',(#220));
#101=EDGE_LOOP('',(#221));
#102=EDGE_LOOP('',(#222));
#103=EDGE_LOOP('',(#223));
#104=EDGE_LOOP('',(#224));
#105=EDGE_LOOP('',(#225));
#106=EDGE_LOOP('',(#226));
#107=EDGE_LOOP('',(#227));
#108=EDGE_LOOP('',(#228));
#109=EDGE_LOOP('',(#229));
#110=EDGE_LOOP('',(#230));
#111=EDGE_LOOP('',(#231));
#112=EDGE_LOOP('',(#232));
#113=EDGE_LOOP('',(#233));
#114=EDGE_LOOP('',(#234));
#115=EDGE_LOOP('',(#235));
#116=EDGE_LOOP('',(#236));
#117=EDGE_LOOP('',(#237));
#118=EDGE_LOOP('',(#238));
#119=EDGE_LOOP('',(#239));
#120=EDGE_LOOP('',(#240));
#121=EDGE_LOOP('',(#241));
#122=EDGE_LOOP('',(#242));
#123=EDGE_LOOP('',(#243));
#124=EDGE_LOOP('',(#244));
#125=EDGE_LOOP('',(#245));
#126=EDGE_LOOP('',(#246));
#127=EDGE_LOOP('',(#247));
#128=EDGE_LOOP('',(#248));
#129=EDGE_LOOP('',(#249));
#130=EDGE_LOOP('',(#250));
#131=EDGE_LOOP('',(#251));
#132=EDGE_LOOP('',(#252));
#133=CIRCLE('',#282,10.85265);
#134=CIRCLE('',#283,10.85265);
#135=CIRCLE('',#285,13.26435);
#136=CIRCLE('',#286,13.26435);
#137=CIRCLE('',#288,15.67605);
#138=CIRCLE('',#289,15.19371);
#139=CIRCLE('',#291,15.67605);
#140=CIRCLE('',#293,12.0585);
#141=CIRCLE('',#295,12.0585);
#142=CIRCLE('',#297,10.85265);
#143=CIRCLE('',#300,13.26435);
#144=CIRCLE('',#302,15.67605);
#145=CIRCLE('',#304,15.67605);
#146=CIRCLE('',#306,15.17605);
#147=CIRCLE('',#309,15.67605);
#148=CIRCLE('',#310,15.19371);
#149=CIRCLE('',#312,15.67605);
#150=CIRCLE('',#314,12.0585);
#151=CIRCLE('',#316,12.0585);
#152=CIRCLE('',#318,10.85265);
#153=CIRCLE('',#321,13.26435);
#154=CIRCLE('',#323,15.67605);
#155=CIRCLE('',#325,15.67605);
#156=CIRCLE('',#327,15.17605);
#157=VERTEX_POINT('',#429);
#158=VERTEX_POINT('',#431);
#159=VERTEX_POINT('',#434);
#160=VERTEX_POINT('',#436);
#161=VERTEX_POINT('',#439);
#162=VERTEX_POINT('',#441);
#163=VERTEX_POINT('',#444);
#164=VERTEX_POINT('',#447);
#165=VERTEX_POINT('',#450);
#166=VERTEX_POINT('',#453);
#167=VERTEX_POINT('',#457);
#168=VERTEX_POINT('',#460);
#169=VERTEX_POINT('',#463);
#170=VERTEX_POINT('',#466);
#171=VERTEX_POINT('',#470);
#172=VERTEX_POINT('',#472);
#173=VERTEX_POINT('',#475);
#174=VERTEX_POINT('',#478);
#175=VERTEX_POINT('',#481);
#176=VERTEX_POINT('',#484);
#177=VERTEX_POINT('',#488);
#178=VERTEX_POINT('',#491);
#179=VERTEX_POINT('',#494);
#180=VERTEX_POINT('',#497);
#181=EDGE_CURVE('',#157,#157,#133,.T.);
#182=EDGE_CURVE('',#158,#158,#134,.T.);
#183=EDGE_CURVE('',#159,#159,#135,.T.);
#184=EDGE_CURVE('',#160,#160,#136,.T.);
#185=EDGE_CURVE('',#161,#161,#137,.T.);
#186=EDGE_CURVE('',#162,#162,#138,.T.);
#187=EDGE_CURVE('',#163,#163,#139,.T.);
#188=EDGE_CURVE('',#164,#164,#140,.T.);
#189=EDGE_CURVE('',#165,#165,#141,.T.);
#190=EDGE_CURVE('',#166,#166,#142,.T.);
#191=EDGE_CURVE('',#167,#167,#143,.T.);
#192=EDGE_CURVE('',#168,#168,#144,.T.);
#193=EDGE_CURVE('',#169,#169,#145,.T.);
#194=EDGE_CURVE('',#170,#170,#146,.T.);
#195=EDGE_CURVE('',#171,#171,#147,.T.);
#196=EDGE_CURVE('',#172,#172,#148,.T.);
#197=EDGE_CURVE('',#173,#173,#149,.T.);
#198=EDGE_CURVE('',#174,#174,#150,.T.);
#199=EDGE_CURVE('',#175,#175,#151,.T.);
#200=EDGE_CURVE('',#176,#176,#152,.T.);
#201=EDGE_CURVE('',#177,#177,#153,.T.);
#202=EDGE_CURVE('',#178,#178,#154,.T.);
#203=EDGE_CURVE('',#179,#179,#155,.T.);
#204=EDGE_CURVE('',#180,#180,#156,.T.);
#205=ORIENTED_EDGE('',*,*,#181,.T.);
#206=ORIENTED_EDGE('',*,*,#182,.T.);
#207=ORIENTED_EDGE('',*,*,#183,.F.);
#208=ORIENTED_EDGE('',*,*,#184,.F.);
#209=ORIENTED_EDGE('',*,*,#185,.T.);
#210=ORIENTED_EDGE('',*,*,#186,.T.);
#211=ORIENTED_EDGE('',*,*,#187,.T.);
#212=ORIENTED_EDGE('',*,*,#185,.F.);
#213=ORIENTED_EDGE('',*,*,#186,.F.);
#214=ORIENTED_EDGE('',*,*,#188,.F.);
#215=ORIENTED_EDGE('',*,*,#188,.T.);
#216=ORIENTED_EDGE('',*,*,#189,.F.);
#217=ORIENTED_EDGE('',*,*,#189,.T.);
#218=ORIENTED_EDGE('',*,*,#190,.F.);
#219=ORIENTED_EDGE('',*,*,#190,.T.);
#220=ORIENTED_EDGE('',*,*,#182,.F.);
#221=ORIENTED_EDGE('',*,*,#184,.T.);
#222=ORIENTED_EDGE('',*,*,#191,.F.);
#223=ORIENTED_EDGE('',*,*,#191,.T.);
#224=ORIENTED_EDGE('',*,*,#192,.F.);
#225=ORIENTED_EDGE('',*,*,#192,.T.);
#226=ORIENTED_EDGE('',*,*,#193,.F.);
#227=ORIENTED_EDGE('',*,*,#193,.T.);
#228=ORIENTED_EDGE('',*,*,#194,.F.);
#229=ORIENTED_EDGE('',*,*,#194,.T.);
#230=ORIENTED_EDGE('',*,*,#187,.F.);
#231=ORIENTED_EDGE('',*,*,#195,.T.);
#232=ORIENTED_EDGE('',*,*,#196,.T.);
#233=ORIENTED_EDGE('',*,*,#197,.T.);
#234=ORIENTED_EDGE('',*,*,#195,.F.);
#235=ORIENTED_EDGE('',*,*,#196,.F.);
#236=ORIENTED_EDGE('',*,*,#198,.F.);
#237=ORIENTED_EDGE('',*,*,#198,.T.);
#238=ORIENTED_EDGE('',*,*,#199,.F.);
#239=ORIENTED_EDGE('',*,*,#199,.T.);
#240=ORIENTED_EDGE('',*,*,#200,.F.);
#241=ORIENTED_EDGE('',*,*,#200,.T.);
#242=ORIENTED_EDGE('',*,*,#181,.F.);
#243=ORIENTED_EDGE('',*,*,#183,.T.);
#244=ORIENTED_EDGE('',*,*,#201,.F.);
#245=ORIENTED_EDGE('',*,*,#201,.T.);
#246=ORIENTED_EDGE('',*,*,#202,.F.);
#247=ORIENTED_EDGE('',*,*,#202,.T.);
#248=ORIENTED_EDGE('',*,*,#203,.F.);
#249=ORIENTED_EDGE('',*,*,#203,.T.);
#250=ORIENTED_EDGE('',*,*,#204,.F.);
#251=ORIENTED_EDGE('',*,*,#204,.T.);
#252=ORIENTED_EDGE('',*,*,#197,.F.);
#253=TOROIDAL_SURFACE('',#281,14.3,10.85265);
#254=TOROIDAL_SURFACE('',#284,14.3,13.26435);
#255=ADVANCED_FACE('',(#61,#37),#253,.F.);
#256=ADVANCED_FACE('',(#62,#38),#254,.T.);
#257=ADVANCED_FACE('',(#63,#39),#27,.T.);
#258=ADVANCED_FACE('',(#64,#40),#17,.T.);
#259=ADVANCED_FACE('',(#65,#41),#15,.T.);
#260=ADVANCED_FACE('',(#66,#42),#18,.F.);
#261=ADVANCED_FACE('',(#67,#43),#28,.F.);
#262=ADVANCED_FACE('',(#68,#44),#19,.F.);
#263=ADVANCED_FACE('',(#69,#45),#20,.T.);
#264=ADVANCED_FACE('',(#70,#46),#29,.T.);
#265=ADVANCED_FACE('',(#71,#47),#21,.T.);
#266=ADVANCED_FACE('',(#72,#48),#30,.T.);
#267=ADVANCED_FACE('',(#73,#49),#31,.T.);
#268=ADVANCED_FACE('',(#74,#50),#32,.T.);
#269=ADVANCED_FACE('',(#75,#51),#22,.T.);
#270=ADVANCED_FACE('',(#76,#52),#16,.T.);
#271=ADVANCED_FACE('',(#77,#53),#23,.F.);
#272=ADVANCED_FACE('',(#78,#54),#33,.F.);
#273=ADVANCED_FACE('',(#79,#55),#24,.F.);
#274=ADVANCED_FACE('',(#80,#56),#25,.T.);
#275=ADVANCED_FACE('',(#81,#57),#34,.T.);
#276=ADVANCED_FACE('',(#82,#58),#26,.T.);
#277=ADVANCED_FACE('',(#83,#59),#35,.T.);
#278=ADVANCED_FACE('',(#84,#60),#36,.T.);
#279=CLOSED_SHELL('',(#255,#256,#257,#258,#259,#260,#261,#262,#263,#264,
#265,#266,#267,#268,#269,#270,#271,#272,#273,#274,#275,#276,#277,#278));
#280=AXIS2_PLACEMENT_3D('placement',#427,#329,#330);
#281=AXIS2_PLACEMENT_3D('',#428,#331,#332);
#282=AXIS2_PLACEMENT_3D('',#430,#333,#334);
#283=AXIS2_PLACEMENT_3D('',#432,#335,#336);
#284=AXIS2_PLACEMENT_3D('',#433,#337,#338);
#285=AXIS2_PLACEMENT_3D('',#435,#339,#340);
#286=AXIS2_PLACEMENT_3D('',#437,#341,#342);
#287=AXIS2_PLACEMENT_3D('',#438,#343,#344);
#288=AXIS2_PLACEMENT_3D('',#440,#345,#346);
#289=AXIS2_PLACEMENT_3D('',#442,#347,#348);
#290=AXIS2_PLACEMENT_3D('',#443,#349,#350);
#291=AXIS2_PLACEMENT_3D('',#445,#351,#352);
#292=AXIS2_PLACEMENT_3D('',#446,#353,#354);
#293=AXIS2_PLACEMENT_3D('',#448,#355,#356);
#294=AXIS2_PLACEMENT_3D('',#449,#357,#358);
#295=AXIS2_PLACEMENT_3D('',#451,#359,#360);
#296=AXIS2_PLACEMENT_3D('',#452,#361,#362);
#297=AXIS2_PLACEMENT_3D('',#454,#363,#364);
#298=AXIS2_PLACEMENT_3D('',#455,#365,#366);
#299=AXIS2_PLACEMENT_3D('',#456,#367,#368);
#300=AXIS2_PLACEMENT_3D('',#458,#369,#370);
#301=AXIS2_PLACEMENT_3D('',#459,#371,#372);
#302=AXIS2_PLACEMENT_3D('',#461,#373,#374);
#303=AXIS2_PLACEMENT_3D('',#462,#375,#376);
#304=AXIS2_PLACEMENT_3D('',#464,#377,#378);
#305=AXIS2_PLACEMENT_3D('',#465,#379,#380);
#306=AXIS2_PLACEMENT_3D('',#467,#381,#382);
#307=AXIS2_PLACEMENT_3D('',#468,#383,#384);
#308=AXIS2_PLACEMENT_3D('',#469,#385,#386);
#309=AXIS2_PLACEMENT_3D('',#471,#387,#388);
#310=AXIS2_PLACEMENT_3D('',#473,#389,#390);
#311=AXIS2_PLACEMENT_3D('',#474,#391,#392);
#312=AXIS2_PLACEMENT_3D('',#476,#393,#394);
#313=AXIS2_PLACEMENT_3D('',#477,#395,#396);
#314=AXIS2_PLACEMENT_3D('',#479,#397,#398);
#315=AXIS2_PLACEMENT_3D('',#480,#399,#400);
#316=AXIS2_PLACEMENT_3D('',#482,#401,#402);
#317=AXIS2_PLACEMENT_3D('',#483,#403,#404);
#318=AXIS2_PLACEMENT_3D('',#485,#405,#406);
#319=AXIS2_PLACEMENT_3D('',#486,#407,#408);
#320=AXIS2_PLACEMENT_3D('',#487,#409,#410);
#321=AXIS2_PLACEMENT_3D('',#489,#411,#412);
#322=AXIS2_PLACEMENT_3D('',#490,#413,#414);
#323=AXIS2_PLACEMENT_3D('',#492,#415,#416);
#324=AXIS2_PLACEMENT_3D('',#493,#417,#418);
#325=AXIS2_PLACEMENT_3D('',#495,#419,#420);
#326=AXIS2_PLACEMENT_3D('',#496,#421,#422);
#327=AXIS2_PLACEMENT_3D('',#498,#423,#424);
#328=AXIS2_PLACEMENT_3D('',#499,#425,#426);
#329=DIRECTION('axis',(0.,0.,1.));
#330=DIRECTION('refdir',(1.,0.,0.));
#331=DIRECTION('center_axis',(0.,0.,1.));
#332=DIRECTION('ref_axis',(1.,0.,0.));
#333=DIRECTION('center_axis',(1.,0.,0.));
#334=DIRECTION('ref_axis',(0.,0.,-1.));
#335=DIRECTION('center_axis',(6.12323399573677E-17,1.,0.));
#336=DIRECTION('ref_axis',(0.,0.,-1.));
#337=DIRECTION('center_axis',(0.,0.,1.));
#338=DIRECTION('ref_axis',(1.,0.,0.));
#339=DIRECTION('center_axis',(1.,0.,0.));
#340=DIRECTION('ref_axis',(0.,0.,-1.));
#341=DIRECTION('center_axis',(6.12323399573677E-17,1.,0.));
#342=DIRECTION('ref_axis',(0.,0.,-1.));
#343=DIRECTION('center_axis',(-6.12323399573677E-17,-1.,0.));
#344=DIRECTION('ref_axis',(1.,-6.12323399573677E-17,0.));
#345=DIRECTION('center_axis',(6.12323399573677E-17,1.,0.));
#346=DIRECTION('ref_axis',(1.,-6.12323399573677E-17,0.));
#347=DIRECTION('center_axis',(-6.12323399573677E-17,-1.,0.));
#348=DIRECTION('ref_axis',(1.,-6.12323399573677E-17,0.));
#349=DIRECTION('center_axis',(6.12323399573677E-17,1.,0.));
#350=DIRECTION('ref_axis',(-1.,6.12323399573677E-17,0.));
#351=DIRECTION('center_axis',(6.12323399573677E-17,1.,0.));
#352=DIRECTION('ref_axis',(0.,0.,-1.));
#353=DIRECTION('center_axis',(6.12323399573677E-17,1.,0.));
#354=DIRECTION('ref_axis',(0.,0.,-1.));
#355=DIRECTION('center_axis',(6.12323399573677E-17,1.,0.));
#356=DIRECTION('ref_axis',(0.,0.,-1.));
#357=DIRECTION('center_axis',(6.12323399573677E-17,1.,0.));
#358=DIRECTION('ref_axis',(-1.,6.12323399573677E-17,0.));
#359=DIRECTION('center_axis',(6.12323399573677E-17,1.,0.));
#360=DIRECTION('ref_axis',(0.,0.,-1.));
#361=DIRECTION('center_axis',(6.12323399573677E-17,1.,0.));
#362=DIRECTION('ref_axis',(-1.,6.12323399573677E-17,0.));
#363=DIRECTION('center_axis',(6.12323399573677E-17,1.,0.));
#364=DIRECTION('ref_axis',(0.,0.,-1.));
#365=DIRECTION('center_axis',(6.12323399573677E-17,1.,0.));
#366=DIRECTION('ref_axis',(-1.,6.12323399573677E-17,0.));
#367=DIRECTION('center_axis',(6.12323399573677E-17,1.,0.));
#368=DIRECTION('ref_axis',(-1.,6.12323399573677E-17,0.));
#369=DIRECTION('center_axis',(6.12323399573677E-17,1.,0.));
#370=DIRECTION('ref_axis',(0.,0.,-1.));
#371=DIRECTION('center_axis',(6.12323399573677E-17,1.,0.));
#372=DIRECTION('ref_axis',(-1.,6.12323399573677E-17,0.));
#373=DIRECTION('center_axis',(6.12323399573677E-17,1.,0.));
#374=DIRECTION('ref_axis',(0.,0.,-1.));
#375=DIRECTION('center_axis',(6.12323399573677E-17,1.,0.));
#376=DIRECTION('ref_axis',(-1.,6.12323399573677E-17,0.));
#377=DIRECTION('center_axis',(6.12323399573677E-17,1.,0.));
#378=DIRECTION('ref_axis',(0.,0.,-1.));
#379=DIRECTION('center_axis',(-6.12323399573677E-17,-1.,0.));
#380=DIRECTION('ref_axis',(-1.,6.12323399573677E-17,0.));
#381=DIRECTION('center_axis',(6.12323399573677E-17,1.,0.));
#382=DIRECTION('ref_axis',(0.,0.,-1.));
#383=DIRECTION('center_axis',(6.12323399573677E-17,1.,0.));
#384=DIRECTION('ref_axis',(-1.,6.12323399573677E-17,0.));
#385=DIRECTION('center_axis',(-1.,0.,0.));
#386=DIRECTION('ref_axis',(0.,-1.,0.));
#387=DIRECTION('center_axis',(1.,0.,0.));
#388=DIRECTION('ref_axis',(0.,-1.,0.));
#389=DIRECTION('center_axis',(-1.,0.,0.));
#390=DIRECTION('ref_axis',(0.,-1.,0.));
#391=DIRECTION('center_axis',(1.,0.,0.));
#392=DIRECTION('ref_axis',(0.,1.,0.));
#393=DIRECTION('center_axis',(1.,0.,0.));
#394=DIRECTION('ref_axis',(0.,0.,-1.));
#395=DIRECTION('center_axis',(1.,0.,0.));
#396=DIRECTION('ref_axis',(0.,0.,-1.));
#397=DIRECTION('center_axis',(1.,0.,0.));
#398=DIRECTION('ref_axis',(0.,0.,-1.));
#399=DIRECTION('center_axis',(1.,0.,0.));
#400=DIRECTION('ref_axis',(0.,1.,0.));
#401=DIRECTION('center_axis',(1.,0.,0.));
#402=DIRECTION('ref_axis',(0.,0.,-1.));
#403=DIRECTION('center_axis',(1.,0.,0.));
#404=DIRECTION('ref_axis',(0.,1.,0.));
#405=DIRECTION('center_axis',(1.,0.,0.));
#406=DIRECTION('ref_axis',(0.,0.,-1.));
#407=DIRECTION('center_axis',(1.,0.,0.));
#408=DIRECTION('ref_axis',(0.,1.,0.));
#409=DIRECTION('center_axis',(1.,0.,0.));
#410=DIRECTION('ref_axis',(0.,1.,0.));
#411=DIRECTION('center_axis',(1.,0.,0.));
#412=DIRECTION('ref_axis',(0.,0.,-1.));
#413=DIRECTION('center_axis',(1.,0.,0.));
#414=DIRECTION('ref_axis',(0.,1.,0.));
#415=DIRECTION('center_axis',(1.,0.,0.));
#416=DIRECTION('ref_axis',(0.,0.,-1.));
#417=DIRECTION('center_axis',(1.,0.,0.));
#418=DIRECTION('ref_axis',(0.,1.,0.));
#419=DIRECTION('center_axis',(1.,0.,0.));
#420=DIRECTION('ref_axis',(0.,0.,-1.));
#421=DIRECTION('center_axis',(-1.,0.,0.));
#422=DIRECTION('ref_axis',(0.,1.,0.));
#423=DIRECTION('center_axis',(1.,0.,0.));
#424=DIRECTION('ref_axis',(0.,0.,-1.));
#425=DIRECTION('center_axis',(1.,0.,0.));
#426=DIRECTION('ref_axis',(0.,1.,0.));
#427=CARTESIAN_POINT('',(0.,0.,0.));
#428=CARTESIAN_POINT('Origin',(14.3,14.3,0.));
#429=CARTESIAN_POINT('',(14.3,10.85265,0.));
#430=CARTESIAN_POINT('Origin',(14.3,0.,0.));
#431=CARTESIAN_POINT('',(-4.53443847086295E-16,14.3,10.85265));
#432=CARTESIAN_POINT('Origin',(8.75622461390358E-16,14.3,0.));
#433=CARTESIAN_POINT('Origin',(14.3,14.3,0.));
#434=CARTESIAN_POINT('',(14.3,1.62441437702702E-15,13.26435));
#435=CARTESIAN_POINT('Origin',(14.3,0.,0.));
#436=CARTESIAN_POINT('',(13.26435,14.3,1.62441437702702E-15));
#437=CARTESIAN_POINT('Origin',(8.75622461390357E-16,14.3,0.));
#438=CARTESIAN_POINT('Origin',(2.12836449508035E-15,34.75883,0.));
#439=CARTESIAN_POINT('',(-15.67605,34.51766,1.91976244557739E-15));
#440=CARTESIAN_POINT('Origin',(2.11359709165283E-15,34.51766,0.));
#441=CARTESIAN_POINT('',(-15.19371,35.,-1.86069283186731E-15));
#442=CARTESIAN_POINT('Origin',(2.14313189850787E-15,35.,0.));
#443=CARTESIAN_POINT('Origin',(2.03750611208141E-15,33.275,0.));
#444=CARTESIAN_POINT('',(-15.67605,31.55,0.));
#445=CARTESIAN_POINT('Origin',(1.93188032565495E-15,31.55,0.));
#446=CARTESIAN_POINT('Origin',(-12.0585,35.,0.));
#447=CARTESIAN_POINT('',(-12.0585,35.,0.));
#448=CARTESIAN_POINT('Origin',(2.14313189850787E-15,35.,0.));
#449=CARTESIAN_POINT('Origin',(1.59204083889156E-15,26.,0.));
#450=CARTESIAN_POINT('',(-12.0585,17.,0.));
#451=CARTESIAN_POINT('Origin',(1.04094977927525E-15,17.,0.));
#452=CARTESIAN_POINT('Origin',(1.00403127070645E-15,16.397075,0.));
#453=CARTESIAN_POINT('',(-10.85265,15.79415,0.));
#454=CARTESIAN_POINT('Origin',(9.67112762137659E-16,15.79415,0.));
#455=CARTESIAN_POINT('Origin',(9.21367611764008E-16,15.047075,0.));
#456=CARTESIAN_POINT('Origin',(8.84449103195212E-16,14.44415,0.));
#457=CARTESIAN_POINT('',(-13.26435,14.5883,0.));
#458=CARTESIAN_POINT('Origin',(8.93275745000067E-16,14.5883,0.));
#459=CARTESIAN_POINT('Origin',(9.67112762137659E-16,15.79415,0.));
#460=CARTESIAN_POINT('',(-15.67605,17.,0.));
#461=CARTESIAN_POINT('Origin',(1.04094977927525E-15,17.,0.));
#462=CARTESIAN_POINT('Origin',(1.47110696747576E-15,24.025,0.));
#463=CARTESIAN_POINT('',(-15.67605,31.05,0.));
#464=CARTESIAN_POINT('Origin',(1.90126415567627E-15,31.05,0.));
#465=CARTESIAN_POINT('Origin',(1.90891819817094E-15,31.175,0.));
#466=CARTESIAN_POINT('',(-15.17605,31.3,0.));
#467=CARTESIAN_POINT('Origin',(1.91657224066561E-15,31.3,0.));
#468=CARTESIAN_POINT('Origin',(1.92422628316028E-15,31.425,0.));
#469=CARTESIAN_POINT('Origin',(34.75883,0.,0.));
#470=CARTESIAN_POINT('',(34.51766,15.67605,1.91976244557739E-15));
#471=CARTESIAN_POINT('Origin',(34.51766,0.,0.));
#472=CARTESIAN_POINT('',(35.,15.19371,-1.86069283186731E-15));
#473=CARTESIAN_POINT('Origin',(35.,0.,0.));
#474=CARTESIAN_POINT('Origin',(33.275,0.,0.));
#475=CARTESIAN_POINT('',(31.55,15.67605,0.));
#476=CARTESIAN_POINT('Origin',(31.55,0.,0.));
#477=CARTESIAN_POINT('Origin',(35.,12.0585,0.));
#478=CARTESIAN_POINT('',(35.,12.0585,0.));
#479=CARTESIAN_POINT('Origin',(35.,0.,0.));
#480=CARTESIAN_POINT('Origin',(26.,0.,0.));
#481=CARTESIAN_POINT('',(17.,12.0585,0.));
#482=CARTESIAN_POINT('Origin',(17.,0.,0.));
#483=CARTESIAN_POINT('Origin',(16.397075,0.,0.));
#484=CARTESIAN_POINT('',(15.79415,10.85265,0.));
#485=CARTESIAN_POINT('Origin',(15.79415,0.,0.));
#486=CARTESIAN_POINT('Origin',(15.047075,0.,0.));
#487=CARTESIAN_POINT('Origin',(14.44415,0.,0.));
#488=CARTESIAN_POINT('',(14.5883,13.26435,0.));
#489=CARTESIAN_POINT('Origin',(14.5883,0.,0.));
#490=CARTESIAN_POINT('Origin',(15.79415,0.,0.));
#491=CARTESIAN_POINT('',(17.,15.67605,0.));
#492=CARTESIAN_POINT('Origin',(17.,0.,0.));
#493=CARTESIAN_POINT('Origin',(24.025,0.,0.));
#494=CARTESIAN_POINT('',(31.05,15.67605,0.));
#495=CARTESIAN_POINT('Origin',(31.05,0.,0.));
#496=CARTESIAN_POINT('Origin',(31.175,0.,0.));
#497=CARTESIAN_POINT('',(31.3,15.17605,0.));
#498=CARTESIAN_POINT('Origin',(31.3,0.,0.));
#499=CARTESIAN_POINT('Origin',(31.425,0.,0.));
#500=UNCERTAINTY_MEASURE_WITH_UNIT(LENGTH_MEASURE(0.01),#504,
'DISTANCE_ACCURACY_VALUE',
'Maximum model space distance between geometric entities at asserted c
onnectivities');
#501=UNCERTAINTY_MEASURE_WITH_UNIT(LENGTH_MEASURE(1.E-6),#504,
'DISTANCE_ACCURACY_VALUE',
'Maximum model space distance between geometric entities at asserted c
onnectivities');
#502=(
GEOMETRIC_REPRESENTATION_CONTEXT(3)
GLOBAL_UNCERTAINTY_ASSIGNED_CONTEXT((#500))
GLOBAL_UNIT_ASSIGNED_CONTEXT((#504,#507,#505))
REPRESENTATION_CONTEXT('','3D')
);
#503=(
GEOMETRIC_REPRESENTATION_CONTEXT(3)
GLOBAL_UNCERTAINTY_ASSIGNED_CONTEXT((#501))
GLOBAL_UNIT_ASSIGNED_CONTEXT((#504,#507,#505))
REPRESENTATION_CONTEXT('','3D')
);
#504=(
LENGTH_UNIT()
NAMED_UNIT(*)
SI_UNIT(.MILLI.,.METRE.)
);
#505=(
NAMED_UNIT(*)
SI_UNIT($,.STERADIAN.)
SOLID_ANGLE_UNIT()
);
#506=DIMENSIONAL_EXPONENTS(0.,0.,0.,0.,0.,0.,0.);
#507=(
CONVERSION_BASED_UNIT('degree',#509)
NAMED_UNIT(#506)
PLANE_ANGLE_UNIT()
);
#508=(
NAMED_UNIT(*)
PLANE_ANGLE_UNIT()
SI_UNIT($,.RADIAN.)
);
#509=PLANE_ANGLE_MEASURE_WITH_UNIT(PLANE_ANGLE_MEASURE(0.01745329252),#508);
#510=SHAPE_DEFINITION_REPRESENTATION(#511,#512);
#511=PRODUCT_DEFINITION_SHAPE('',$,#514);
#512=SHAPE_REPRESENTATION('',(#280),#502);
#513=PRODUCT_DEFINITION_CONTEXT('part definition',#518,'design');
#514=PRODUCT_DEFINITION('050507007_0505070070A','050507007_0505070070A',
#515,#513);
#515=PRODUCT_DEFINITION_FORMATION('',$,#520);
#516=PRODUCT_RELATED_PRODUCT_CATEGORY('050507007_0505070070A',
'050507007_0505070070A',(#520));
#517=APPLICATION_PROTOCOL_DEFINITION('international standard',
'automotive_design',2009,#518);
#518=APPLICATION_CONTEXT(
'Core Data for Automotive Mechanical Design Process');
#519=PRODUCT_CONTEXT('part definition',#518,'mechanical');
#520=PRODUCT('050507007_0505070070A','050507007_0505070070A',$,(#519));
#521=PRESENTATION_STYLE_ASSIGNMENT((#522));
#522=SURFACE_STYLE_USAGE(.BOTH.,#523);
#523=SURFACE_SIDE_STYLE($,(#524));
#524=SURFACE_STYLE_FILL_AREA(#525);
#525=FILL_AREA_STYLE($,(#526));
#526=FILL_AREA_STYLE_COLOUR($,#527);
#527=COLOUR_RGB('',0.749019607843137,0.749019607843137,0.749019607843137);
ENDSEC;
END-ISO-10303-21;
